Song name
# A B C D E F G H I J K L M N O P Q R S T U V W X Y Z

Misc Unsigned Bands - Krystle Warren - Sunday Comfort chords

Highlighted       Show chord diagrams
-------------------------------------------------------------------------------
			     Sunday Comfort - Krystle Warren
-------------------------------------------------------------------------------
Tabbed by:LukieWukie
Email:Lukie.Wukie@hotmail.com

Here's my tab of Krystle Warren's "Sunday Comfort",just picked up the album a 
few weeks ago and I'm loving it to bits,this song in particular.
Hope you like it!

Tuning:Standard

Note: I personally play this with just my fingers,I don't know if on the record
it's played with a pick or not,but I believe it sounds better.


INTRO: It's best in this part to just use your fingers to gently pluck the first few 
strings,except on the last chord,which is strummed gently with the thumb.

Intro Chords: B - G - F#
    
        B      G      F#
e|------7------3------2------------------------------------------------------|
B|------7------3------2------------------------------------------------------|
G|------8------4------3------------------------------------------------------|
D|------9------5------4------------------------------------------------------|
A|------9------5------4------------------------------------------------------|
E|------7------3------2------------------------------------------------------|


     These circumstances, these days of the week
     B
     
     Iíll pick them up, fold them in, make them origami
                    G
     
     Ďtil words form within and give me something to sing
          F#  
     
     Boats, trains, aeroplanes..Iíll take anything.
     B(strum)


VERSE: In the first part of the verse,until the lyric "can't find the quarters"
,slightly liftyour fingers off the fretboard after each chord strum,but keep 
them resting on the strings to get the same sound as on the recording.

Verse Chords: Same as intro  B - G - F#

    
      These sweet pieces of loveís etiquette
      B

      Spoil my appetite and make me forget
        G 

      Canít find the hole that enabled the fall
       F#

      Canít find the quarters to make sense of it all
      B(mute after strum)

      When you were blind, I wrote a letter in braille
                   B

      Thinking that you would take it as just everyday mail,
          G

      I carved out a soldier, wounded, laid on a cot
         F#

      In quotes he asked you why it was that you shot
         B(mute after strum)


PRE-CHORUS
Chords: A# - D#m - C#

        A#    D#m   C#
e|------6------6-----4-------------------------------------------------------|
B|------6------7-----6-------------------------------------------------------|
G|------7------8-----6-------------------------------------------------------|
D|------8------8-----6-------------------------------------------------------|
A|------8------6-----4-------------------------------------------------------|
E|------6------x-----x-------------------------------------------------------|


      You left me looking for Sunday Comfort on a... 
      A#           D#m    A#         D#m     C#


CHORUS
Chords: B - F# - E - A# - D#m - Dm - G# - Cm

        E     Dm    G#    Cm
e|------0-----5-----4-----3--------------------------------------------------|
B|------0-----6-----4-----4--------------------------------------------------|
G|------1-----7-----5-----5--------------------------------------------------|
D|------2-----7-----6-----5--------------------------------------------------|
A|------2-----5-----6-----3--------------------------------------------------|
E|------0-----x-----4-----x--------------------------------------------------|


      Monday afternoon
      B             F#
      Monday afternoon...oh
      B             F#   E
      Monday afternoon
      B             F#
      Monday afternoon
      B             A#


      Oh...
      D#m
      Oh...
      A#
      Oh...
      D#m
      
    Oooooh  Oooooh
    A#  Dm  G#  Cm


VERSE


     These circumstances, these days of the week
     B
     
     Iíll pick them up,I fold them in,and make them origami
                    G
     
     Ďtil words form within and give me something to sing
          F#  
     
     Boats, trains, aeroplanes..Iíll take anything.
     B(mute after strum)

     
     These sweet pieces of loveís etiquette
      B

      Spoil my appetite and make me forget
        G 

      Canít find the hole that enabled the fall
       F#

      Canít find the quarters to make sense of it all
      B(mute after strum)

      When you were blind, I wrote a letter in braille
      B

      Thinking that you would take it as just everyday mail,
          G

      I carved out a soldier, wounded, laid on a cot
         F#

      In quotes he asked you why it was that you shot
         B(mute after strum)


PRE-CHORUS


      You left me looking for Sunday Comfort on a... 
      A#           D#m    A#         D#m     C#

CHORUS

      
      Monday afternoon
      B             F#
      Monday afternoon...oh
      B             F#   E
      Monday afternoon
      B             F#
      Monday afternoon
      B             A#

      Oh...
      D#m
      Oh...
      A#
      Oh...
      D#m
      Oh...
      A#
    Ooooooh
    D#m  C#

      Monday afternoon
      B             F#
      Monday afternoon...oh
      B             F#   E
      Monday afternoon
      B             F#
      Monday afternoon
      B             A#


      Oh...
      D#m
      Oh...
      A#
      Oh...
      D#m
      
    Oooooh  Oooooh
    A#  Dm  G#  Cm



(Thanks to MetroLyrics.com for the lyrics)


| /  slide up
| \  slide down
| h  hammer-on
| p  pull-off
| ~  vibrato
| +  harmonic
| x  Mute note
===============================================================================
Tap to rate this tab
# A B C D E F G H I J K L M N O P Q R S T U V W X Y Z