Song name
# A B C D E F G H I J K L M N O P Q R S T U V W X Y Z

Misc Unsigned Bands - The Walking Targets - Crowded Rooms tab

The Walking Targets
Crowded Rooms
www.myspace.com/thewalkingtargets

Chorus
e------------------------------------------------------------------------|
b------------------------------------------------------------------------|
g-7-777777----------7-777777----------7-777777---------------------------| x2
d-7-777777-5-555555-7-777777-5-555555-7-777777-5-555555-7-7777777777777--|
a-5-555555-5-555555-5-555555-5-555555-5-555555-5-555555-7-7777777777777--|
e----------3-333333----------3-333333----------3-333333-5-5555555555555--|

Verse
e--------------------------------------------------------------------------|
b--------------------------------------------------------------------------|
g-7-77------5-55-555-7-77------5-55-555-7-77------5-55-555-----------------| x2
d-7-77-5-55-5-55-555-7-77-5-55-5-55-555-7-77-5-55-5-55-555-7-777777777777--|
a-5-55-5-55-3-33-333-5-55-5-55-3-33-333-5-55-5-55-3-33-333-7-777777777777--|
e------3-33---------------3-33---------------3-33----------5-555555555555--|

Chorus

Verse

Chorus

Solo
e-10------10-8--10-----------10------10-8------------88--|
b----8-10----------8-10---------8-10------77-88-1010-----|
g-----------------------11-9-----------------------------| x2
d--------------------------------------------------------|
a--------------------------------------------------------|
e--------------------------------------------------------|

then
e------------88------------88-10~~-|
b-77-88-1010----77-88-1010---------|
g----------------------------------|
d----------------------------------|
a----------------------------------|
e----------------------------------|

pause then
Chorus

end on
e---
b---
g-7~
d-7~
a-5~
e---
Tap to rate this tab
 
# A B C D E F G H I J K L M N O P Q R S T U V W X Y Z