Song name
# A B C D E F G H I J K L M N O P Q R S T U V W X Y Z

Misc Unsigned Bands - Age Pryor - Funny Shadow tab

Funny Shadow
By Age Pryor and Tessa Rain

Repeat this pattern for the entire song. All chords are picked the
 same throughout the song. Note this does NOT include the solo.

| h  hammer-on

    C                         F                       C
e|------------------------------------------------------------------|
B|------------------------------------------------------------------|
G|-----0------0-----0------0-----2-----2-----2-----2-----0------0---|
D|--------2h-----------2h-----------3-----------3-----------2h------|
A|--3------------3------------------------3-----------3-------------|
E|----------------------------1-------------------------------------|
          Wha a  funny     sha-       -dow   you      have

    C                                     Am
e|------------------------------------------------------------------|
B|------------------------------------------------------------------|
G|-----0------0-----0------0-----0-----0-----2-----2-----2------2---|
D|--------2h-----------2h-----------------------2h----------2h------|
A|--3------------3------------3-----2-----0-----------0-------------|
E|------------------------------------------------------------------|
                                                Wh yo lo be-    -hind

    F                         C
e|---------------------------------------------------------------------|
B|---------------------------------------------------------------------|
G|-----2------2-----2------2-----0-----0-----0-----0-----0------0------|
D|--------3------------3------------2h----------2h----------2h---------|
A|---------------3------------3-----------3-----------3----------------|
E|--1------------------------------------------------------------------|
       you    now   it's   gone.

    C            F                        Am
e|------------------------------------------------------------------|
B|------------------------------------------------------------------|
G|-----0------0-----2-----2------2-----2-----2-----2-----2------2---|
D|--------2h-----------3------------3-----------2h----------2h------|
A|--3-------------------------3-----------0-----------0-------------|
E|---------------1--------------------------------------------------|
              an it just  you    and   her

    F                       G                        C
e|----------------------------------------------------------------|
B|----------------------------------------------------------------|
G|-----2-----2-----2-----2-----0-----0------0-----0-----0------0--|
D|--------3-----------3-----------0------------0-----------2h-----|
A|--------------3-----------------------2h-----------3------------|
E|--1-----------------------3-------------------------------------|
    ea ting  fi sh and      drin-             -king  sea

Tap to rate this tab
# A B C D E F G H I J K L M N O P Q R S T U V W X Y Z