Song name
# A B C D E F G H I J K L M N O P Q R S T U V W X Y Z

Misc Unsigned Bands - Route 36 - Our Song tab

e--|-0---0-2-3---3-------3-------2---|
B--|---0-------3---3-1-1---1-0-0---0-|
G--|---------------------------------|
D--|---------------------------------|
A--|---------------------------------|
E--|---------------------------------|
e--|---------------------------------

OR

B--|---------------------------------|
G--|-0---0-2-3---3-------3-------2---|
D--|---0-------3---3-1-1---1-0-0---0-|
A--|---------------------------------|
E--|---------------------------------|

OR

e--|---------------------------------|
B--|---------------------------------|
G--|---------------------------------|
D--|-0---0-2-3---3-------3-------2---|
A--|---0-------3---3-1-1---1-0-0---0-|
E--|---------------------------------|

OR

e--|---------------------------------|
B--|---------------------------------|
G--|---------------------------------|
D--|---------------------------------|
A--|-0---0-2-3---3-------3-------2---|
E--|---0-------3---3-1-1---1-0-0---0-|
Tap to rate this tab
# A B C D E F G H I J K L M N O P Q R S T U V W X Y Z