Song name
# A B C D E F G H I J K L M N O P Q R S T U V W X Y Z

Misc Unsigned Bands - Lumberjacks - Marlene tab

Riff: the keyboarder plays the riff, lead and rhythm guitar plays chords in this way:

D (12 times) - G (12 times) - D (10 times) - G (4 times) - D (once, let ring)

Stanza:

D - Bm - Em - A

D           Bm                  Em                A
I am a man, a very unlucky man, this is my story, hear it everyone

repeat 4 times and then comes the Rit.

Rit:

G   D         G  A       D    A    
    D(let ring___)
Marlene! I remember that name like as it was yesterday!

then riff, stanza 2, rit. now comes the

Solo part:

after another riff everyone plays again

D - Bm - Em - A

then the rhythm guitar plays

E-----------------------------------------------------------|
B-----------------------------------------------------------|
G-------------------------------------------14-14-14-14-14--|
D-12-12-12-12----------------14-14-14-14-14-----------------|
A-------------14-14-14-14-14--------------------------------|
E-----------------------------------------------------------|

this is played 4 times while keyboard and lead guitar still play D - Bm - Em - A

then comes the Lead Guitar solo which is like this

E------------------------------------------------------------|
B-12-------------12-12-14-14-15-14-12-12-------------15------|
G----14-14-14-14-------------------------14-12-------12------|
D----------------------------------------------16-14-12------|
A------------------------------------------------------------|
E------------------------------------------------------------|

when Lead guitar play the final chord, keayboard and rhythm start the riff again. then 
the third stanza and the third rit.
there is then the last riff which is a bit different:

D (10 times) - G (12 times) - D (6 times)

then the rhythm guitar continues to play the chords, but the lead plays a thing like this

E---------|
B---------|
G---------|
D-5/17----|
A-5/17----|
E---------|

5/17 means that you have to pick at fret 5 then slide to fret 17

Here it is, enjoy!!
Tap to rate this tab
# A B C D E F G H I J K L M N O P Q R S T U V W X Y Z