Song name
# A B C D E F G H I J K L M N O P Q R S T U V W X Y Z

Misc Unsigned Bands - Blurred Vision - Lepys Revenge tab

Lepy's Revenge by Blurred Vision

This song is not actually available to the public. Me and my band (Blurred Vision) made 
song and the guitar part (Done by myself) is pretty cool sounding. Even if you don't 
a band, this is a very easy guitar tab to play by yourself.
                                    Have fun!


(Guitar Intro)
e|----------------------------------------|
B|----------------------------------------|
G|--3/6/8/6/3--3--x-x-x-x-x-x-x-x---------|    (Repeat about 4 times)
D|--3/6/8/6/3--3--x-x-x-x-x-x-x-x---------|
A|--1/4/6/4/1--1--x-x-x-x-x-x-x-x---------|
E|----------------------------------------|


(Guitar Solo)
e|----------------------------------------------------15-17B-17B-17B--|
B|----------------------------------------15-17-17B-15----------------|
G|-------------------------15-17-15-17-17B----------------------------|
D|-----------15-17--17B--15-------------------------------------------|
A|-----14-16B---------------------------------------------------------|
E|14-16---------------------------------------------------------------|

(The Guitar Intro is played for the rest of the song after the solo)

That's it! Once again, have fun!
Tap to rate this tab
 
# A B C D E F G H I J K L M N O P Q R S T U V W X Y Z