Song name
# A B C D E F G H I J K L M N O P Q R S T U V W X Y Z

Misc Unsigned Bands - Ramble - Downhill tab

Ramble - Downhill
www.myspace.com/RockAndRollWithRamble

Standard Tuning

Intro
|-----------------|-----------------|
|-----------------|-----------------|.
|-----------------|-----------------|
|--5-3------------|--5-3------------|
|------5-4-3------|------5-4-3------|. Repeat 4 times
|------------6-3--|------------6-3--|

Intro (Both Guitars)
|--------|-----------------|--------|-----------------|
|--------|-----------------|--------|-----------------|.
|---3-5--|-----------------|---3-5--|-----------------|
|-5-3-5--|--5-3------------|-5-3-5--|--5-3------------|
|-5------|------5-4-3------|-5------|------5-4-3------|. Repeat Twice
|-3------|------------6-3--|-3------|------------6-3--|

Verse
  G
|--------|--------|
|--------|--------|
|---3-5--|--------|
|-5-3-5--|--------|
|-5------|--------|
|-3------|--------| X4

  C
|--------|--------|
|---3-3--|--------|
|-5-3-5--|--------|
|-5------|--------|
|-3------|--------|
|--------|--------| X2

  G
|--------|--------|
|--------|--------|
|---3-5--|--------|
|-5-3-5--|--------|
|-5------|--------|
|-3------|--------| X2

  D                 C                 G                 G
|--------|--------|--------|--------|--------|--------|--------|--------|
|---5-7--|--------|---3-5--|--------|--------|--------|--------|--------|
|-7-5-7--|--------|-5-3-5--|--------|---3-5--|--------|---3-5--|--------|
|-7------|--------|-5------|--------|-5-3-5--|--------|-5-3-5--|--------|
|-5------|--------|-3------|--------|-5------|--------|-5------|--------|
|--------|--------|--------|--------|-3------|--------|-3------|--------|

Chorus is simply

Things are goin down-hill!
and then

  G
|--------|
|--------|
|--------|
|-5-5----|
|-5-5----|
|-3-3----|

Intro
Verse
Chorus
Second Part of Intro
Verse
Chorus
Solo (Verse G Repeated)
Second Part of Intro
Just the G part of Verse.
Tap to rate this tab
# A B C D E F G H I J K L M N O P Q R S T U V W X Y Z