Song name
# A B C D E F G H I J K L M N O P Q R S T U V W X Y Z

Misc Unsigned Bands - Ramble - Bobby Jones chords

Highlighted       Show chord diagrams
Ramble - Bobby Jones
www.Myspace.com/RockAndRollWithRamble

Standard Tuning
  D  C  A  G
|-------------|
|-------------|
|-77-55-------|
|-77-55-77-55-|
|-55-33-77-55-|
|-------55-33-|

Repeat until end of song, during verses palm mute, during drum solos staccato, during 
solo use this slightly altered pattern:
  D      C      A      G
|-----------------------------|
|-----------------------------|
|-77-7-7-55-5-5---------------|
|-77-7-7-55-5-5-77-7-7-55-5-5-|
|-55-5-5-33-3-3-77-7-7-55-5-5-|
|---------------55-5-5-33-3-3-|

Solos are improvised in D minor pentatonic.
Tap to rate this tab
 
# A B C D E F G H I J K L M N O P Q R S T U V W X Y Z