Song name
# A B C D E F G H I J K L M N O P Q R S T U V W X Y Z

Misc Unsigned Bands - Rock On - Socha Hai tab

e-------------------------------------------|------------|
B-------------------------------------------|------------|
G-------------------------------------------|------------|
D---7---7-9----7---7-9---7h9p7--------------|------------|
A-----------9----------9-------9-7-7-9----7-|----7-9-----|
E--------------------------------------10---|-10---------|

After playing the above pattern once repeat it only up to those vertical lines. Don't 
the last 3 notes.


e----------------------------------------------------------|
B-----------10----------10-10------------------------------|
G-------7-9-----9bu-7---------9bu-7---7-9bu-- 7-9---7-9----|
D---sl7-9---------------9-------------9-----------9-----7--|
A----------------------------------------------------------|
E----------------------------------------------------------|

e-----------17------------17-17----------------------|14-15-17-14-15----14-------------------|
B--------15----17bu-15----------17bu-15----15-17bu17-|---------------17----15-17-------------|
G--14-16---------------16---------------16-----------|---------------------------14-16-------|
D----------------------------------------------------|------------------------------14bd-12--|
A----------------------------------------------------|---------------------------------------|
E----------------------------------------------------|---------------------------------------|
							(play this part fast)


bu - bend up
bd - bend down
sl - slide
Tap to rate this tab
# A B C D E F G H I J K L M N O P Q R S T U V W X Y Z