Song name
# A B C D E F G H I J K L M N O P Q R S T U V W X Y Z

Misc Unsigned Bands - Vanattica - Outside Amboy tab

Song:Outside Amboy
Band:Vanattica
Album:Demo
http://www.myspace.com/vanattica
any questions/comments email
angela.kuqocb112@gmail.com
Band Email:vanattica@hotmail.com
                  

               Intro/Main Rhythm Part
E |------------------------------------------------------|
B |------------------------------------------------------|
G |------6------7----9-----------------------------------| X2
D |-0000-x-0000-x-00-x-----------------------------------|
A |-0000-4-0000-5-00-7-----------------------------------|
D |-0000---0000---00-------------------------------------|

E |------------------------------------------------------|
B |------------------------------------------------------|
G |------11-----12----14------11------11h12-----11-------|
D |-0000-x-0000-x--00-x--0000-x--0000-x------00-x--------|
A |-0000-9-0000-10-00-12-0000-9--0000-9------00-9--------|
D |-0000---0000----00----0000----0000--------00----------|

        Whole Intro/Main Rhythm Part Repeat

                Fill/Main Lead Part

E |------------------------------------------------------|
B |------------------------------------------------------|
G |------------------------------------------------------|
D |------------------------------------------------------|
A |-5h7s9-7-9s10s9-7-------------------------------------|
D |------------------------------------------------------|


E |------------------------------------------------------|
B |-/11-7-7-7777-/11-7-7-7777--/11-11h12-9-9-9999--------|
G |------------------------------------------------------|
D |------------------------------------------------------|
A |------------------------------------------------------|
D |------------------------------------------------------|


E |------------------------------------------------------|
B |-/11-11h12-9-9-9999ó7xxxx9-9999--7xxxx9-9999----------|
G |------------------------------------------------------|
D |------------------------------------------------------|
A |------------------------------------------------------|
D |------------------------------------------------------|


E |------------------------------------------------------|
B |------------------------------------------------------|
G |------------------------------------------------------|
D |------------------------------------------------------|
A |-9-7777-9-7777-9-77-9-7777-9-77-9-77------------------|
D |------------------------------------------------------|

Edit: forgot to repeat the rytym


          Then thereís a lead part followed by a solo
         But I havenít tabbed that yet so for now enjoy
Tap to rate this tab
# A B C D E F G H I J K L M N O P Q R S T U V W X Y Z