Song name
# A B C D E F G H I J K L M N O P Q R S T U V W X Y Z

Misc Unsigned Bands - Coupon Clippers - Roll The Dice tab

*-let ring
h-hammer on
'-strum quickly a few times up and down
\-slide up

Intro                     Part Between Intro and Verse
e------------------------|------------------------|
B------------------------|------------------------|
G------2-3*--------2-1*--|------------------------|
D--3-3--------3-3--------|--3-3-5-3-5-7-5---------|
A------------------------|------5-3-5-7-5---------|
E------------------------|------3-1-3-5-3---------|


Verse
----------------------------------------|
----------------------------------------|
----------------------------------------|
--77777-55555-77777-55555-7-5-3'-3-5-7--|
--77777-55555-77777-55555-7-5-3--3-5-7--|
--55555-33333-55555-33333-5-3-1--1-3-5--|


Chorus
--------------------------------------|
--------------------------------------|
--55555--------55555-------55555------|
--55555-55555--55555-55555-55555-55555|
--33333-55555--33333-55555-33333-55555|
--------33333--------33333-------33333|

Roll the Dice Riff
---------------------------------------|
---------------------------------------|
---------------------------------------|
--7-5-3--------------------------------|
--7-5-3--------------------------------|
--5-3-1--------------------------------|

Solo
-3-1--------------------4---4---6\\\12-------10-------------10-----------|
-----3-1------------------5---5---------10-12----12-10-10-12----12-10\20-|
---------3-1----------5--------------------------------------------------|
------------------3h5----------------------------------------------------|
--------------3h5--------------------------------------------------------|
-------------------------------------------------------------------------|


Intro 3x
Part between Intro and Verse 1x
Verse 1x
Chorus 1x
Solo
Roll the Dice riff 1x
Verse 1x
Chorus 1x
Verse 1x
Chorus 1x
Roll the Dice riff 3x
Tap to rate this tab
 
# A B C D E F G H I J K L M N O P Q R S T U V W X Y Z