Song name
# A B C D E F G H I J K L M N O P Q R S T U V W X Y Z

Misc Unsigned Bands - Ole Evenrude - Home Sweet Home tab

intro solo
----------------------------15b-15b-15-12br-------------------------------|
-15b-15b-15brp13-15-15b-15v-----------------15-13-12----------12br--------|
-----------------------------------------------------14-12-10-----12(24)b-|
--------------------------------------------------------------------------|
--------------------------------------------------------------------------|
--------------------------------------------------------------------------|


Verse, play this twice, always palm mute the E and A.
---------------------------------------------------------------------------------|
---------------------------------------------------------------------------------|
---------------------------------------------------------------------------------|
-------------3/5-----------5-x-5-------------7/8-----------5-x-5-------------2/3-|
-3-3-3-3-3-3-----5-5-5-5-5-------7-7-7-7-7-7-----5-5-5-5-5-------2-2-2-2-2-2-----|
-1-1-1-1-1-1-----3-3-3-3-3-------5-5-5-5-5-5-----3-3-3-3-3-------0-0-0-0-0-0-----|

--------------------------------------------|
--------------------------------------------|
-----------------------4------4------4------|
-------------------5------5------5------5---|
-3-3-3-3-3-3-3-3-----5------5------5------5-|
-1-1-1-1-1-1-1-1-3--------------------------|

Pre-chorus
---------------------------------------------------------------------------|
---------------------------------------------------------------------------|
---------------------------------------------------------------------------|
-----3----3--------7----7------5----5------5----3------3----3------7----7--|
-----3----3--------7----7------5----5------5----3------3----3------7----7--|
-1-1----1------5-5----5----3-3----3----3-3----3----1-1----1----5-5----5----|

-------------------------------------------------|
-------------------------------------------------|
-------------------------------------------------|
-5-------5-------5-------5-------5-------5-------|
-5-5-5-5-5-5-5-5-5-5-5-5-5-5-5-5-5-5-5-5-5-5-5-5-|
-3-3-3-3-3-3-3-3-3-3-3-3-3-3-3-3-3-3-3-3-3-3-3-3-|

Chorus, play twice!
1 2
--------------------|----------------------------|
--------------------|----------------------------|
-5------------------|----------------------------|
-5--5-5---7-7---3-3-|-5--5-5---3-3--5--5-/7\5----|
----5-5---7-7---3-3-|-5--5-5---3-3--5--5-/7\5----|
--------------------|----------------------------|

Verse og pre-chorus
Chorus
play part 1 of the chorus as Bridge

solo:
N.H N.H whammy P.H W W W W W W W W W W W W W
------------------------------------------------------------------------------------------------|
-----------------20b--20b---20b---20-p17-h22-p17-h20-p17-h22-p17-h20-p17-h22-p17-h20-p17-18b-p17|
-(5)-(5)----------------------------------------------------------------------------------------|
------------------------------------------------------------------------------------------------|
------------------------------------------------------------------------------------------------|
------------------------------------------------------------------------------------------------|

P.H |---3-----------------------------------------------------------------------------|
-----------------------------------------------10h12h13/17p15p13-19b--rp17p15---------|
--------------------------------------10h12h13--------------------------------18---b--|
-17b---17v-----------------9--10--12--------------------------------------------------|
--------------9---10---12-------------------------------------------------------------|
--------------------------------------------------------------------------------------|
--------------------------------------------------------------------------------------|

|-------TREMOLO-PICKING---------------------------------------------------------------------|
-5--8--7--10--8--12--10--13--12--15--13--17--15--19--17--20--19--22--20--22b--22b--22b-22b--|
--------------------------------------------------------------------------------------------|
--------------------------------------------------------------------------------------------|
--------------------------------------------------------------------------------------------|
--------------------------------------------------------------------------------------------|


--------------------|----------------------------|
--------------------|----------------------------|
-5------------------|----------------------------|
-5--5-5---7-7---3-3-|-5--5-5---3-3--5--5-/7\5----|
----5-5---7-7---3-3-|-5--5-5---3-3--5--5-/7\5----|
--------------------|----------------------------|

--------------------|----------------------------|
--------------------|----------------------------|
-5------------------|----------------------------|
-5--5-5---7-7---3-3-|-5--5-5---3-3--5--5-/7\5----|
----5-5---7-7---3-3-|-5--5-5---3-3--5--5-/7\5----|
--------------------|----------------------------|

----------------------------|
----------------------------|
-5--------------------------|
-5--5-5---7-7---3-3--5-5-5--|
----5-5---7-7---3-3--5-5-5--|
----------------------------|

repeat this till the song stops.
--------------------|----------------------------|
--------------------|----------------------------|
-7------------------|----------------------------|
-7--7-7---9-9--5-5--|-7--7-7---5-5--7--7-/9\7----|
----7-7---9-9--5-5--|-7--7-7---5-5--7--7-/9\7----|
--------------------|----------------------------|
Tap to rate this tab
# A B C D E F G H I J K L M N O P Q R S T U V W X Y Z