Song name
# A B C D E F G H I J K L M N O P Q R S T U V W X Y Z

Misc Unsigned Bands - Of Eyes And Wheels - Fireworks At Twenty Fathoms tab

-------------------------------------------------------------------------------
	            Fireworks At Twenty Fathoms - Of Eyes And Wheels
-------------------------------------------------------------------------------
This is my first tab submitted to Ultimate Guitar.  
I take pride in an understandable format without all the nonsensical symbols.  
To listen to the song look them up on myspace.  
Questions or comments please give me a buzz.  Enjoy.
-Gen TomTom

Tabbed by:Gen TomTom
Email:spike070@aol.com

Tuning:Standard

Gt1-Clean-[No Effects]-Intro&Verse
     [Em]    [D]     [B]   [C]    [Em]    [D]     [B]   [C]  [D]
e|----------------------------------------------------------------|
B|----------------------------------------------------------------|
G|----12------11------8-----9------12------11------8-----9----11--|
D|----------------------------------------------------------------|
A|----------------------------------------------------------------|
E|--0----0h10----10-7---7-8---8--0----0h10----10-7---7-8---10-----|

e|--------------------------------------------------|
B|--------------------------------------------------|
G|----12------11------8-----9------12------11----9--||Gt1 continues
D|--------------------------------------------------||through verses.
A|--------------------------------------------------|x4
E|--0----0h10----10-7---7-8---8--0----0h10----10-8--|

Gt2-Clean-[Tremolo,Reverb]-Intro
    [Em]                  [Em]               [B]
e|--7--7--7--------------7--7--------------------|
B|--8--8----8------8---8------8------8---8----7--|
G|--9--9------9--9---9----------9--9---9---9--8--|
D|--------------------------------------------9--|
A|-----------------------------------------------|
E|-----------------------------------------------|

Gt2-Clean-[No Effects]-Verse  
  [Em][D][B][C] [Em][D][B][C][Em]   [Em][D][B][C] [Em][D][B]
e|--7--5--2--3----7--5--2--3---7------7--5--2--3----7--5--2--|
B|--8--7--4--5----8--7--4--5-----8----8--7--4--5----8--7--4--|
G|--9--7--4--5----9--7--4--5-------9--9--7--4--5----9--7--4--|x2
D|-----------------------------------------------------------|
A|-----------------------------------------------------------|
E|-----------------------------------------------------------|

Gt1&Gt2-Dist-[No Effects]-Bridge
     [E]   [E]     [D]
e|----------------|--------|
B|----------------|--------|
G|----9-----9-----|-7------|Play bridge
D|----9-----9-[x3]|-7-[x8]-|2x & return
A|----7-----7-----|-5------|to verse.
E|--0---0-0-------|-5------|

Gt1&Gt2-Dist-[No Effects]-Chorus
   [B] [F#]    [C] [G]       [D]
e|--------------------------|---------|
B|--------------------------|---------|
G|--4-----------5-----------|-7-------|Play chorus
D|--4-x-4-x-x-x-5-x-5-x-x-x-|-7-[x12]-|4x & return
A|--2-x-4-x-x-x-3-x-5-x-x-x-|-5-------|to intro.
E|--2-x-2-x-x-x-3-x-3-x-x-x-|-5-------|

Progressive Order
-----------------
Intro
Verse
Bridge
Verse
Bridge
Chorus
Outro(Intro)
 
Tap to rate this tab
# A B C D E F G H I J K L M N O P Q R S T U V W X Y Z