Song name
# A B C D E F G H I J K L M N O P Q R S T U V W X Y Z

Misc Unsigned Bands - Tatsu Takahashi - Chaos Within tab

----------------------------------------------------------------------------
                      Choas Within by Tatsu Takahashi
----------------------------------------------------------------------------

Tuning:Drop D
(D A D G B E)

RIFF 1
-DRUM INTRO--------------------------------------|
E----------|-------------------------------------|
B----------|-------------------------------------|
G----------|-------------------------------------|  2 TIMES
D----------|-------------------------------------|
A----------|--3h50XX5h30X3-0--3h50--5h3------3-0-|
D----------|0X-----------3-0-----------7h5h3X3-0-|

RIFF 2
--ALL OPEN STRINGS PALM MUTE------------|
E---------------------------------------|
B---------------------------------------|
G---------------------------------------|
D---------------------------------------|
A0-00-00-0-00-00-0-00-00-0-00-5-3X------|     4 TIMES
D0-00-00-0-00-00-0-00-00-0-00----X------|

CHORUS

E--------|
B--------|
G--------|
D23202320
A--------|
D--------|

E-------------------|
B-------------------|
G5-----------7---10-|
D5--5--5h3----------| 2 TIMES
A3--5--5h3----------|
D---5--5h3----------|

E----------|
B----------|
G5---------|
D5--5--5h3-|
A3--5--5h3-|
D---5--5h3-|

BACK TO RIFF 1

AFTER RIFF 1 GO TO RIFF 2

PLAY CHORUS AGAIN

BACK TO RIFF 1
Tap to rate this tab
# A B C D E F G H I J K L M N O P Q R S T U V W X Y Z