Song name
# A B C D E F G H I J K L M N O P Q R S T U V W X Y Z

Misc Unsigned Bands - J Netts - Laid To Rest tab

-------------------------------------------------------------------------------
			     Laid To Rest - J Netts
-------------------------------------------------------------------------------
Tabbed by: J Netts
Email: Joshie717@aol.com

Tuning: Standard Tuning

Intro:
e|------------------------------------------------------------------------------|
B|----------0--------------------------------0--------1--------3--------1-------|
G|-------5-------7----5----4h5p4----------2-----2--------2--------2--------2----|
D|----5--------------------------------2-----------2--------2--------2--------2-|
A|-3--------------------------------0-------------------------------------------|
E|------------------------------------------------------------------------------|

e|------------------------------------------------------------------------------|
B|----------0--------------------------------0--------1--------3--------1-------|
G|-------5-------7----9----7\5-4h5--------2-----2--------2--------2--------2----|
D|----5--------------------------------2-----------2--------2--------2--------2-|
A|-3--------------------------------0-------------------------------------------|
E|------------------------------------------------------------------------------|

Verse:
e|------------------------------------------------|
B|----------0-----------0-----------0-----------0-|
G|-------5-----5-----5-----5-----5-----5-----5----|
D|----5-----------5-----------5-----------5-------|
A|-3----------------------------------------------|
E|------------------------------------------------|

e|------------------------------------------------|
B|----------0-----------0-----------0-----------0-|
G|-------2-----2-----2-----2-----2-----2-----2----|
D|----2-----------2-----------2-----------2-------|
A|-0----------------------------------------------|
E|------------------------------------------------|

e|------------------------------------------------|
B|----------0-----------0-----------0-----------0-|
G|-------5-----5-----5-----5-----5-----5-----5----|
D|----5-----------5-----------5-----------5-------|
A|-3----------------------------------------------|
E|------------------------------------------------|

e|------------------------------------------------|
B|----------0-----------0-----------0-----------0-|
G|-------2-----2-----2-----2-----2-----2-----2----|
D|----2-----------2-----------2-----------2-------|
A|-0----------------------------------------------|
E|------------------------------------------------|

e|------------------------------------------------|
B|----------3-----------------3-----------------3-|
G|-------5-----5-----------5-----5-----------5----|
D|----5-----------5-----5-----------5-----5-------|
A|-3-----------------3-----------------3----------|
E|------------------------------------------------|

e|------------------------------------------------|
B|----------0-----------------0-----------------0-|
G|-------2-----2-----------2-----2-----------2----|
D|----2-----------2-----2-----------2-----2-------|
A|-0-----------------0-----------------0----------|
E|------------------------------------------------|

e|------------------------------------------------|
B|----------3-----------------3-----------------3-|
G|-------5-----5-----------5-----5-----------5----|
D|----5-----------5-----5-----------5-----5-------|
A|-3-----------------3-----------------3----------|
E|------------------------------------------------|

e|------------------------------------------------|
B|----------0-----------------0-----------------0-|
G|-------2-----2-----------2-----2-----------2----|
D|----2-----------2-----2-----------2-----2-------|
A|-0-----------------0-----------------0----------|
E|------------------------------------------------|
    
Chorus:
    C  A  F  G
e|--3--5--1--3-|
B|--3--5--1--3-|
G|--5--5--1--3-|
D|--5--7--3--5-|
A|--3--7--3--5-|
E|--3--5--1--3-|

Intro
Verse
Chorus
Verse
Chorus x2


| \  slide down
| h  hammer-on
| p  pull-off
===============================================================================
Tap to rate this tab
 
# A B C D E F G H I J K L M N O P Q R S T U V W X Y Z