Song name
# A B C D E F G H I J K L M N O P Q R S T U V W X Y Z

Misc Unsigned Bands - Pergamum - Oss Fm tab

Band: Pergamum
Song: OSS FM
Album: Feel Life's Fear

Intro A x2
(Clean)
E|----|   |----|   |---|   |---|  |-------------------------|
B|----|   |----|   |---|   |---|  |-------------------------|
G|----|   |----|   |---|   |---|  |-------------------------|
D|----|x16|----|x16|---|x16|---|x8|-------------------------|
A|-12-|   |-10-|   |-7-|   |-8-|  |-10-10-12-12-13-13-13-13-|
D|-12-|   |-8--|   |-5-|   |-7-|  |-11-11-11-11-11-11-11-11-|
PM .        .        .       .      .  .  .  .  .  .  .  .

Intro B x2
[GUITAR ONE]
(Distortion)
E|---|   |----|   |---|   |---|  |-------------------------|
B|---|   |----|   |---|   |---|  |-------------------------|
G|---|   |----|   |---|   |---|  |-------------------------|
D|---|x16|----|x16|---|x16|---|x8|-------------------------|
A|-0-|   |-10-|   |-7-|   |-8-|  |-10-10-12-12-13-13-13-13-|
D|-0-|   |-8--|   |-5-|   |-7-|  |-11-11-11-11-11-11-11-11-|
PM .       .        .       .      .  .  .  .  .  .  .  .

Intro B
[GUITAR TWO]
(Distortion, Wah)
E|---------------------------------|
B|---------------------------------|
G|-7~~~~~-6*~~~~~-3~~~~~-2~~~-6~~~-|
D|---------------------------------|
A|---------------------------------|
D|---------------------------------|

continued.

E|-----------------------------------------------|
B|-----------------------------------------------|
G|-10~~~~~-14~~~~~-12~~~~~-15tr~14tr~-19tr~18tr~-|
D|-----------------------------------------------|
A|-----------------------------------------------|
D|-----------------------------------------------|

Part A x1
[GUITAR ONE]
(Distortion)
E|---------------------------|------------------------|
B|---------------------------|------------------------|
G|---------------------------|------------------------|
D|-----8p0-5p0-7p0-3p0-5p0-2-|-----8p0-5p0-7p0-3p0-2v-|
A|---------------------------|------------------------|
D|-000-----------------------|-000--------------------|
PM ...                         ...

[GUITAR TWO]
E|------------|--------------|------------|
B|------------|--------------|------------|
G|------------|--------------|------------|
D|------------|--------------|------------|
A|-00-000-0-0-|--------------|-00-000-0-0-|
D|-00-000-0-0-|--------------|-00-000-0-0-|
PM .. ... . .                  .. ... . .

[GUITAR ONE]
E|---------------------------|---------------------------|
B|---------------------------|---------------------------|
G|---------------------------|---------------------------|
D|-----8p0-5p0-7p0-3p0-5p0-2-|-12p10p8-10p8p7-8p7p5------|
A|---------------------------|----------------------7*vv-|
D|-000-----------------------|---------------------------|
PM ...

[GUITAR TWO]
E|------------|
B|------------|
G|------------|
D|------------|
A|-00-000-0-0-|
D|-00-000-0-0-|
PM .. ... . .

Part B x3
[GUITAR ONE]
(Distortion)
E|---------------------------|------------------------|
B|---------------------------|------------------------|
G|---------------------------|------------------------|
D|-----8p0-5p0-7p0-3p0-5p0-2-|-----8p0-5p0-7p0-3p0-2v-|
A|---------------------------|------------------------|
D|-000-----------------------|-000--------------------|
PM ...                         ...

[GUITAR TWO]
E|-----------------------------|-------------------------|
B|-----------------------------|-------------------------|
G|-----------------------------|-------------------------|
D|-----12p0-8p0-10p0-7p0-8p0-5-|-----12p0-8p0-10p0-7p0-5-|
A|-----------------------------|-------------------------|
D|-000-------------------------|-000---------------------|
PM ...                           ...

[GUITAR ONE]
E|---------------------------|---------------------------|
B|---------------------------|---------------------------|
G|---------------------------|---------------------------|
D|-----8p0-5p0-7p0-3p0-5p0-2-|-12p10p8-10p8p7-8p7p5------|
A|---------------------------|----------------------7*vv-|
D|-000-----------------------|---------------------------|
PM ...

[GUITAR TWO]
E|-----------------------------|
B|-----------------------------|
G|-----------------------------|
D|-----12p0-8p0-10p0-7p0-8p0-5-|
A|-----------------------------|
D|-000-------------------------|
PM ...

Part C x4
[GUITAR ONE]
(Reverb, Chorus)
E|-18~-17~-------------|-18~-17~-------------|
B|---------18~-17~-15~-|---------18~-17~-14~-|
G|---------------------|---------------------|
D|---------------------|---------------------|
A|---------------------|---------------------|
D|---------------------|---------------------|

Outro A
[GUITAR ONE] x2
(Distortion)
E|---|   |----|   |---|   |---|  |-------------------------|
B|---|   |----|   |---|   |---|  |-------------------------|
G|---|   |----|   |---|   |---|  |-------------------------|
D|---|x16|----|x16|---|x16|---|x8|-------------------------|
A|-0-|   |-10-|   |-7-|   |-8-|  |-10-10-12-12-13-13-13-13-|
D|-0-|   |-8--|   |-5-|   |-7-|  |-11-11-11-11-11-11-11-11-|
PM .       .        .       .      .  .  .  .  .  .  .  .

Intro B
[GUITAR TWO]
(Distortion, Wah)
E|---------------------------------------|
B|---------------------------------------|
G|-7~~~~~-6*~~~~~-12~~~~~-15tr~14tr~-18~-|
D|---------------------------------------|
A|---------------------------------------|
D|---------------------------------------|

continued.

E|-----------------------------------------------|
B|-----------------------------------------------|
G|-10~~~~~-14~~~~~-12~~~~~-15tr~14tr~-19tr~18tr~-|
D|-----------------------------------------------|
A|-----------------------------------------------|
D|-----------------------------------------------|

GUITAR ONE ends this on:
E|----|----------------|
B|----|----------------|
G|----|----------------|
D|----|----------------|
A|-8~-|-10~-12~-13~~~~-|
D|-7~-|-11~-11~-11~~~~-|

Outro B
[GUITAR ONE]
(Distortion, Fade In)
E|--------------------------------|
B|--------------------------------|
G|--------------------------------|
D|-0~~~~~~~~~~~~~~~~~~~~~~~~~~~~~-|
A|-0~~~~~~~~~~~~~~~~~~~~~~~~~~~~~-|
D|-0~~~~~~~~~~~~~~~~~~~~~~~~~~~~~-|

[GUITAR TWO] x4
(Clean)
E|----------|
B|----------|
G|----------|
D|-7~-------|
A|----8~-5~-|
D|----------|

Tabbed by: Disturbed_EMG of Ultimate-Guitar. If you see this anywhere other than UG, 
been stolen.
Tap to rate this tab
 
# A B C D E F G H I J K L M N O P Q R S T U V W X Y Z