Song name
# A B C D E F G H I J K L M N O P Q R S T U V W X Y Z

Misc Unsigned Bands - Twice The Messenger - Damn Nature You Scary tab

Awesome underrated band.

Exported this from guitar pro. The 'S' and 'E' and that stuff are note lengths.

DROP C# TUNING: C#, G#, C#, F#, A#, D#


  PM PM PM PM PM          PM PM PM PM    PM          PM PM PM PM        
      S  S  S  S  E  E  E  E  S  S  S  S     E  E  E  E  S  S  S  S  E  E   
D#||--------------------------------------|--------------------------------|
A#||--------------------6-----------------|--------6--------------------6--|
F#||-----------------9-----9--------------|-----9-----9--------------5-----|
C#||--0--0--0--0--0-----------0--0--0--0--|--0-----------0--0--0--0--------|
G#||--0--0--0--0--0-----------0--0--0--0--|--0-----------0--0--0--0--------|
C#||--0--0--0--0--0-----------0--0--0--0--|--0-----------0--0--0--0--------|


  PM PM PM PM PM          PM PM PM PM    PM          PM PM PM PM         
  S  S  S  S  E  E  E  E  S  S  S  S     E  E  E  E  S  S  S  S  E   E   
--------------------------------------|---------------------------------|
--------------------6-----------------|--------6------------------------|
-----------------9-----9--------------|-----9-----9--------------5p--3--|
--0--0--0--0--0-----------0--0--0--0--|--0-----------0--0--0--0---------|
--0--0--0--0--0-----------0--0--0--0--|--0-----------0--0--0--0---------|
--0--0--0--0--0-----------0--0--0--0--|--0-----------0--0--0--0---------|


  PM PM PM PM PM          PM PM PM PM    PM          PM PM PM PM        
  S  S  S  S  E  E  E  E  S  S  S  S     E  E  E  E  S  S  S  S  E  E   
--------------------------------------|--------------------------------|
--------------------6-----------------|--------6--------------------6--|
-----------------9-----9--------------|-----9-----9--------------5-----|
--8--8--8--8--8-----------8--8--8--8--|--8-----------8--8--8--8--------|
--8--8--8--8--8-----------8--8--8--8--|--8-----------8--8--8--8--------|
--8--8--8--8--8-----------8--8--8--8--|--8-----------8--8--8--8--------|


  PM PM PM PM PM          PM PM PM PM    PM          PM PM PM PM        
  S  S  S  S  E  E  E  E  S  S  S  S     E  E  E  E  S  S  S  S  E  E   
--------------------------------------|--------------------------------|
--------------------6-----------------|--------6--------------------6--|
-----------------9-----9--------------|-----9-----9--------------------|
--7--7--7--7--7-----------7--7--7--7--|--7-----------7--7--7--7--7-----|
--7--7--7--7--7-----------7--7--7--7--|--7-----------7--7--7--7--------|
--7--7--7--7--7-----------7--7--7--7--|--7-----------7--7--7--7--------|


  PM PM PM PM PM          PM PM PM PM    PM          PM PM PM PM        
  S  S  S  S  E  E  E  E  S  S  S  S     E  E  E  E  S  S  S  S  E  E   
--------------------------------------|--------------------------------|
--------------------6-----------------|--------6--------------------6--|
-----------------9-----9--------------|-----9-----9--------------5-----|
--0--0--0--0--0-----------0--0--0--0--|--0-----------0--0--0--0--------|
--0--0--0--0--0-----------0--0--0--0--|--0-----------0--0--0--0--------|
--0--0--0--0--0-----------0--0--0--0--|--0-----------0--0--0--0--------|


  PM PM PM PM PM          PM PM PM PM    PM          PM PM PM PM         
  S  S  S  S  E  E  E  E  S  S  S  S     E  E  E  E  S  S  S  S  E   E   
--------------------------------------|---------------------------------|
--------------------6-----------------|--------6------------------------|
-----------------9-----9--------------|-----9-----9--------------5p--3--|
--0--0--0--0--0-----------0--0--0--0--|--0-----------0--0--0--0---------|
--0--0--0--0--0-----------0--0--0--0--|--0-----------0--0--0--0---------|
--0--0--0--0--0-----------0--0--0--0--|--0-----------0--0--0--0---------|


  PM PM PM PM PM          PM PM PM PM    PM          PM PM PM PM        
  S  S  S  S  E  E  E  E  S  S  S  S     E  E  E  E  S  S  S  S  E  E   
--------------------------------------|--------------------------------|
--------------------6-----------------|--------6--------------------6--|
-----------------9-----9--------------|-----9-----9--------------5-----|
--8--8--8--8--8-----------8--8--8--8--|--8-----------8--8--8--8--------|
--8--8--8--8--8-----------8--8--8--8--|--8-----------8--8--8--8--------|
--8--8--8--8--8-----------8--8--8--8--|--8-----------8--8--8--8--------|


  PM PM PM PM PM          PM PM PM PM    PM          PM PM PM PM        
  S  S  S  S  E  E  E  E  S  S  S  S     E  E  E  E  S  S  S  S  E  E   
--------------------------------------|--------------------------------|
--------------------6-----------------|--------6--------------------6--|
-----------------9-----9--------------|-----9-----9--------------------|
--7--7--7--7--7-----------7--7--7--7--|--7-----------7--7--7--7--7-----|
--7--7--7--7--7-----------7--7--7--7--|--7-----------7--7--7--7--------|
--7--7--7--7--7-----------7--7--7--7--|--7-----------7--7--7--7--------|


  E  E  E  E  Q    E  E     Q    E  E  E  E  Q       E  E  E  E  Q    E  E   
-------------------------|------------------------|-------------------------|
--------------6----------|--5----------------6----|--------------6----------|
--5--5--7--9----------5--|----------5--7--9-------|--5--5--7--9----------5--|
-------------------7-----|-------7----------------|-------------------7-----|
-------------------------|------------------------|-------------------------|
-------------------------|------------------------|-------------------------|


  Q    E  E  E  E  Q       E  E  E  E    Q    E  E   
-------------------5----|---------------------------|
--5---------------------|--------5--6--6g8----6--5--|
----------5--7--9-------|-----5---------------------|
-------7----------------|--7------------------------|
------------------------|---------------------------|
------------------------|---------------------------|


    Q    E  E    Q    E   E      E   E   E   E   E   E   E   E   
-----------------------------|----------------------------------|
--5g6------------------------|----------------------------------|
---------9--7--7g9----9------|--10--10--10--10--10--10--10--10--|
-------------------------12--|---x---x---x---x---x---x---x---x--|
-----------------------------|---8---8---8---8---8---8---8---8--|
-----------------------------|----------------------------------|


   E  E  E  E   E   E   E   E     E  E  E  E  Q    E  E   
-------------------------------|-------------------------|
-------------------------------|--------------6----------|
--10--9--9--9--12--12--12--12--|--5--5--7--9----------5--|
---x--x--x--x---x---x---x---x--|-------------------7-----|
---8--7--7--7--10--10--10--10--|-------------------------|
-------------------------------|-------------------------|


  Q    E  E  E  E  Q       E  E  E  E  Q    E  E     Q    E  E  E  E  Q     
------------------------|-------------------------|-------------------5----|
--5----------------6----|--------------6----------|--5---------------------|
----------5--7--9-------|--5--5--7--9----------5--|----------5--7--9-------|
-------7----------------|-------------------7-----|-------7----------------|
------------------------|-------------------------|------------------------|
------------------------|-------------------------|------------------------|


  E  E  E  E    Q    E  E       Q    E  E    Q    E   E   
---------------------------|-----------------------------|
--------5--6--6g8----6--5--|--5g6------------------------|
-----5---------------------|---------9--7--7g9----9------|
--7------------------------|-------------------------12--|
---------------------------|-----------------------------|
---------------------------|-----------------------------|


   E   E   E   E   E   E   E   E      E   E   E   E   E   E   E   E   
----------------------------------|----------------------------------|
----------------------------------|----------------------------------|
--14--14--14--14--14--14--14--14--|--14--12--12--12--15--15--15--15--|
---x---x---x---x---x---x---x---x--|---x---x---x---x---x---x---x---x--|
--12--12--12--12--12--12--12--12--|--12--10--10--10--13--13--13--13--|
----------------------------------|----------------------------------|


                PH    PM PM      PH                 
  E  E  E  E    Q     E  E       W                  
----------------------------|----------------------|
--------------<>6~----------|--<>5~----------------|
-----5--7--9-------------5--|----------------------|
--7-------------------7-----|----------------------|
----------------------------|----------------------|
----------------------------|----------------------|


       PM   PM                                          
  |----3----|                                           
  Q    Q    Q    Q    E  E     E  E  E  E  E  E  E  E   
----------------------------|--------------------------|
-------------------------6--|-----6-----6-----6-----6--|
----------------------9-----|--9-----9-----7-----5-----|
--0----0----0----0----------|--------------------------|
--0----0----0----0----------|--------------------------|
--0----0----0----0----------|--------------------------|


       PM   PM                                          
  |----3----|                                           
  Q    Q    Q    Q    E  E     E  E  E  E  E  E  E  E   
----------------------------|--------------------------|
-------------------------6--|-----6-----6-----6-----6--|
----------------------9-----|--9-----9-----7-----5-----|
--0----0----0----0----------|--------------------------|
--0----0----0----0----------|--------------------------|
--0----0----0----0----------|--------------------------|


       PM   PM                                          
  |----3----|                                           
  Q    Q    Q    Q    E  E     E  E  E  E  E  E  E  E   
----------------------------|--------------------------|
-------------------------6--|-----6-----6-----6-----6--|
----------------------9-----|--9-----9-----7-----5-----|
--0----0----0----0----------|--------------------------|
--0----0----0----0----------|--------------------------|
--0----0----0----0----------|--------------------------|


       PM   PM                                           
  |----3----|                                            
  Q    Q    Q    Q    E  E     E  E  E  E  E  E  E  E    
----------------------------|--------------------------||
-------------------------6--|-----6-----6-----6-----6--||
----------------------9-----|--9-----9-----7-----5-----||
--0----0----0----0----------|--------------------------||
--0----0----0----0----------|--------------------------||
--0----0----0----0----------|--------------------------||




Duration Legend
---------------
W - whole
H - half
Q - quarter
E - 8th
S - 16th
T - 32nd
X - 64th
. - note dotted
|-n-|  - n-tuplets


Tablature Legend
----------------
L - tied note
x - dead note
g - grace note
(n) - ghost note
> - accentuded note
NH - natural harmonic
AH - artificial harmonic
TH - tapped harmonic
SH - semi harmonic
PH - pitch harmonic
h - hammer on
p - pull off
b - bend
br - bendRelease
pb - preBend
pbr - preBendRelease
brb - bendReleaseBend
\n/ - tremolo bar dip
\n - tremolo bar dive
-/n - tremolo bar Release up
/n\ - tremolo bar inverted dip
/n - tremolo bar return
-\n - tremolo bar Release down
S - shift slide
s - legato slide
/ -  slide into from below or out of upwards
\ -  slide into from above or out of downwards
~ - vibrato
W - wide vibrato
tr - trill
TP - tremolo picking
T - tapping
S - slap
P - pop
< - fade in
^ - brush up
v - brush down
Tap to rate this tab
 
# A B C D E F G H I J K L M N O P Q R S T U V W X Y Z