Song name
# A B C D E F G H I J K L M N O P Q R S T U V W X Y Z

Misc Unsigned Bands - Josiah Leming - One Last Song tab

One Last Song - Josiah Leming 
Arranged by Maxim


Standard Tuning (E A D G B E)


   Intro
    Q=105
    B                 Dm
   4/4
    Gtr I
    E E E E E E E E   E E E E E E E E
||------1---1---1---|-1---1---3p1---1-|
||o---3---3---3---3-|---3---3-----3---|
||------------------|-2---------------|
||--3---------------|-0---------------|
||o-1---------------|-----------------|
||------------------|-----------------|
    W                 W


  Gm                  Fsus4
  +E  E E E E E E E   E E E a E  Q    Q
|-(1)---------------|----------------------||
|-------3---3---3---|-1---1-1-3--1--------o||
|-----3---3---3---3-|---3-------------3----||
|-------------------|----------------------||
|--1----------------|-3-------------------o||
|--3----------------|-1---------(1)-1---1--||
   W                  H         +E  Q   E


 Verse
  E E E E E E E E   E E E E a E Q  E   +H     E  E E E   E E E E  Q    Q
|-1---1---1---1---|-1---1---1-3-1----|-----------------|---------------------|
|-3-3---3---3---3-|-3-3---3----------|--3-------/3-1---|-1---1-3--1----------|
|-3---------------|-2--------------3-|-(3)-----------3-|-3-3-----------3-----|
|-3---------------|-0----------------|--5--------------|-3-------------------|
|-1---------------|------------------|--5--------------|-3-------------------|
|-----------------|------------------|--3--------------|-1-------(1)-1---1---|
  W                 W                   W                H       +E  Q   E


  E E E E E E E E   E E E Q.    E E   H    E E E E   E E E E  Q    Q
|-1---1---1---1---|-1---6-5----/1---|--------------|--------------------|
|-3-3---3---3---3-|-3-3-----------3-|-3------3-1---|-1---1-3--1---------|
|-3---------------|-2---------------|-3----------3-|-3-3-----------3----|
|-3---------------|-0---------------|-5------------|-3------------------|
|-1---------------|-----------------|-5------------|-3------------------|
|-----------------|-----------------|-3------------|-1-------(1)-1---1--|
  W                 W                 W              H       +E  Q   E


    E E E E E E E E   E E E E E Q  E    H     E E E E   E E E E  Q    Q
||--1---1---1---1---|-1---1---3-1----|----------------|--------------------||
||o-3-3---3---3---3-|-3-3---3--------|--3-------3-1---|-1---1-3--1--------o||
||--3---------------|-2------------3-|-(3)----------3-|-3-3-----------3----||
||--3---------------|-0--------------|--5-------------|-3------------------||
||o-1---------------|----------------|--5-------------|-3-----------------o||
||------------------|----------------|--3-------------|-1-------(1)-1---1--||
    W                 W                 W               H       +E  Q   E


 Chorus
  H       Q    E E   +E  Q   Q.     E E   +Q.     E E Q  E   +Q   E Q   Q.
|-1--------------1-|-(1)-6---5-----/1---|----------------1-|-(1)---------------|
|-3-------3----3---|--3---------------3-|-(3)-------1-3----|------4-3---1------|
|-3---3------------|--2--2---2----------|--3------3--------|-------------------|
|-3-3---3----------|--0----0----0-------|--0--------0------|--3----------------|
|-1---------1------|--------------------|-----5------------|--3---3--------3---|
|------------------|--------------------|--3----3----------|--1-------1--------|
  E E E Q   Q.        E  E E E  H          E  E Q   H         Q   Q   Q    Q


  E E E E E Q  E   +E  Q   Q.     E E   +H        E E E E   E E E E Q   Q
|-1------------1-|-(1)-6---5-----/1---|-------------------|------------------|
|---3-3-3-3-3----|--3---------------3-|-(3)-----------1---|-1---1-3-1--------|
|-3--------------|--2--2---2----------|--3----------3---3-|---3---------3----|
|-3--------------|--0----0----0-------|--0----------------|-2-------2-2---2--|
|-1--------------|--------------------|-----5-------------|------------------|
|----------------|--------------------|--3----3-----------|-0----------------|
  W                 E  E E E  H          E  E H.            H       E Q   E


  H       Q    E E   E Q   Q.     E E   +Q.     E E Q  E   +Q   E Q   Q.
|-1--------------1-|-1-6---5-----/1---|----------------1-|-(1)---------------|
|-3-------3----3---|-3--------------3-|-(3)-------1-3----|------4-3---1------|
|-3---3------------|-2-2---2----------|--3------3--------|-------------------|
|-3-3---3----------|-0---0----0-------|--0--------0------|--3----------------|
|-1---------1------|------------------|-----5------------|--3---3--------3---|
|------------------|------------------|--3----3----------|--1-------1--------|
  E E E Q   Q.       E E E E  H          E  E Q   H         Q   Q   Q    Q


  H       Q    E E   E Q   Q.     E E   +H        E E E E   E E E E  Q    Q
|-1--------------1-|-1-6---5-----/1---|-------------------|--------------------|
|-3-------3----3---|-3--------------3-|-(3)-----------1---|-1---1-3--1---------|
|-3---3------------|-2-2---2----------|--3----------3---3-|---3-----------3----|
|-3-3---3----------|-0---0----0-------|--0----------------|--------------------|
|-1---------1------|------------------|-----5-------------|-3------------------|
|------------------|------------------|--3----3-----------|-1-------(1)-1---1--|
  E E E Q   Q.       E E E E  H          E  E H.            H       +E  Q   E


 Interlude
  E E E E E E E E   E E E E E E E E   E E E E E E E E   E E E E  Q    Q
|-----1---1---1---|-1---1---1---1---|-1---1---1---1---|--------------------|
|---3---3---3---3-|---3---3---3---3-|---3---3---3---3-|-1---1-3--1---------|
|-0---------------|-2---------------|-0---------------|---3-----------3----|
|-1---------------|-3---------------|-----------------|-3-------(3)-3---3--|
|-----------------|-----------------|-----------------|--------------------|
|-----------------|-----------------|-3---------------|-1------------------|
  W                 W                 W                 H       +E  Q   E


                                                                  D.C.
  E E E E E E E E   E E E E E E E E   E E E E E E E E   E E E E Q   Q
|-----1---1---1---|-1---1---1---1---|-1---1---1---1---|------------------|
|---3---3---3---3-|---3---3---3---3-|---3---3---3---3-|-1---1-3-1--------|
|-----------------|-----------------|-0---------------|---3---------3----|
|-1---------------|-3---------------|-----------------|-2-------2-2---2--|
|-3---------------|-----------------|-----------------|------------------|
|-----------------|-1---------------|-3---------------|-0----------------|
  W                 W                 W                 H       E Q   E


   Outro
    E E E E E E E E   E E E E E E E E
||------1---1---1---|-1---1---3p1---1-|
||o---3---3---3---3-|---3---3-----3---|
||------------------|-----------------|
||------------------|-0---------------|
||o-1---------------|-----------------|
||------------------|-----------------|
    W                 W


                      H.=H
  +E  E E E E E E E   E E E E  Q    Q
|-(1)---------------|--------------------||
|-------3---3---3---|-1---1-3--1--------o||
|-----3---3---3---3-|---3-----------3----||
|-------------------|--------------------||
|-------------------|-------------------o||
|--3----------------|-1-------(1)-1---1--||
   W                  H       +E  Q   E


Duration Legend
---------------
W - whole; H - half; Q - quarter; E - 8th; S - 16th; T - 32nd; X - 64th; a - acciaccatura
+ - note tied to previous; . - note dotted; .. - note double dotted
Uncapitalized letters represent notes that are staccato (1/2 duration)
Irregular groupings are notated above the duration line
Duration letters will always appear directly above the note/fret number it represents the
duration for.  Duration letters with no fret number below them represent rests.  Multi-
bar rests are notated in the form Wxn, where n is the number of bars to rest for.  Low
melody durations appear below the staff

Tablature Legend
----------------
 h   - hammer-on
 p   - pull-off
 b   - bend
 pb  - pre-bend
 r   - bend release (if no number after the r, then release immediately)
 /\  - slide into or out of (from/to "nowhere")
 s   - legato slide
 S   - shift slide
  - natural harmonic
[n]  - artificial harmonic
n(n) - tapped harmonic
 ~   - vibrato
 tr  - trill
 T   - tap
 TP  - trem. picking
 PM  - palm muting
\n/  - tremolo bar dip; n = amount to dip
 \n  - tremolo bar down
 n/  - tremolo bar up
/n\  - tremolo bar inverted dip
 =   - hold bend; also acts as connecting device for hammers/pulls
 <>  - volume swell (louder/softer)
 x   - on rhythm slash represents muted slash
 o   - on rhythm slash represents single note slash

Misc Legend
-----------
 |  - bar
||  - double bar
||o - repeat start
o|| - repeat end
*|  - double bar (ending)
 :  - bar (freetime)
 $  - Segno
 &  - Coda
Tempo markers -  = BPM(8/16=s8/s16), where s8 = swing 8ths, s16 = swing 16ths

Tap to rate this tab
 
# A B C D E F G H I J K L M N O P Q R S T U V W X Y Z