Song name
# A B C D E F G H I J K L M N O P Q R S T U V W X Y Z

Misc Unsigned Bands - Runescape - Animal Apogee tab

 There really is no timining to this song as
i seemed to of written in and play it at the
same time.It aint the whole song, but you do
play this riff pretty much throughout the
song.

Comments or questions be sent to
Brandonc27@hotmail.com

8h10=play 8 hammer on 10


Intro

 E:---8--8-----8--8-----8--8---7--7--7-------|
 B:-66-66-66-55-55-55------------------------|  (play 2 times)
 G:-------------------77-77-77-77-77--7------|
 D:------------------------------------------|
 A:------------------------------------------|
 E:------------------------------------------|

 E:---8--8-----8--8---8--8---8h10-7--7--7---|
 B:-66-66-66-55-55-55-----------------------|
 G:--------------------77-77-------77-77--7-|
 D:-----------------------------------------|
 A:-----------------------------------------|
 E:-----------------------------------------|

Hope you enjoyed it!
This is my first tab.
Tap to rate this tab
 
# A B C D E F G H I J K L M N O P Q R S T U V W X Y Z