Song name
# A B C D E F G H I J K L M N O P Q R S T U V W X Y Z

Misc Unsigned Bands - Enemy - Crushed Down tab

Listen Enemy - Crushed down (http://www.sendspace.com/file/9stqol)


ENEMY - CRUSHED DOWN

e------------------------------------------------------|
b------------------------------------------------------|
g------------------------------------------------------|
d---2(third-time-use-floydrose)------------------------|
a---2--------------------------------------------------|
e---0-------3~---2~------------------------------------|  X4


Now,the time for you…
e------------------------------------------------------|
b------------------------------------------------------|
g------------------------------------------------------|
d------------------------------------------------------|
a---2--5--7--8--7--5---2--5--8--7----------------------|
e---0--3--5--6--5--3---0--3--6--5----------------------|  X4


Slide twice..


stay away from…
e------------------------------------------------------|
b------------------------------------------------------|
g------------------------------------------------------|
d------------------------------------------------------|
a---2--------------2------2-------------2--------------|
e---0—-3~--0—-2~---0------0--3~--0--2~--0--------------|


e------------------------------------------------------|
b------------------------------------------------------|
g------------------------------------------------------|
d------------------------------------------------------|
a---2--------------2------2---------3*--2--------------|
e---0—-3~--0—-2~---0------0--3~--0------0--------------|


e------------------------------------------------------|
b------------------------------------------------------|
g------------------------------------------------------|
d------------------------------------------------------|
a---2--------------2------2-------------2--------------|
e---0—-3~--0—-2~---0------0--3~--0--2~--0--------------|  x2







gtr 1
e------------------------------------------------------|
b------------------------------------------------------|
g------------------------------------------------------|
d------------------------------------------------------|
a---8--6-----------------------------------------------| 
e---------8--7---0--6--7--8--0--7----------------------| x4

gtr2
e------------------------------------------------------|
b------------------------------------------------------|
g------------------------------------------------------|
d------------------------------------------------------|
a-2-----------2-2-----------2-2-----------2-2---2------|
e-0-0-0-0-0-0-0-0-0-0-0-0-0-0-0-0-0-0-0-0-0-0-x-0-x-x--|

e------------------------------------------------------|
b------------------------------------------------------|
g------------------------------------------------------|
d-----------------------------------------2-2-2--------|
a-2-----------2-2-----------2-2-----------2-2-2--------|
e-0-0-0-0-0-0-0-0-0-0-0-0-0-0-0-0-0-0-0-0-0-0-0--------|


(screams)
e------------------------------------------------------|
b------------------------------------------------------|
g------------------------------------------------------|
d------------------------------------------------------|
a--2--3--3--2--3--3--2--3---3--4--4--3--4--4--3--4-----|
e--0--1--1--0--1--1--0--1---1--2--2--1--2--2--1--2-----|


Chorus
e------------------------------------------------------|
b------------------------------------------------------|
g------------------------------------------------------|
d------------------------------------------------------|
a--2-2-2---2-2-2---2-2-2---2-2-2---2-2-2---2-2-2-------|
e--0-0-0---0-0-0---0-0-0---0-0-0---0-0-0---0-0-0-------|

e------------------------------------------------------|
b------------------------------------------------------|
g------------------------------------------------------|
d------------------------------------------------------|
a--2-2-2---2-2-2---5-5-5---5-5-5---5-5-5---5-5-5-------|
e--0-0-0---0-0-0---3-3-3---3-3-3---3-3-3---3-3-3-------|

e------------------------------------------------------|
b------------------------------------------------------|
g------------------------------------------------------|
d------------------------------------------------------|
a---4-4-4---4-4-4---4-4-4---4-4-4----------------------|
e---2-2-2---2-2-2---2-2-2---2-2-2----------------------| x2


e------------------------------------------------------|
b------------------------------------------------------|
g------------------------------------------------------|
d------------------------------------------------------|
a--2-2-2---2-2-2---2-2-2---2-2-2---2-2-2---2-2-2-------|
e--0-0-0---0-0-0---0-0-0---0-0-0---0-0-0---0-0-0-------|


e------------------------------------------------------|
b------------------------------------------------------|
g------------------------------------------------------|
d------------------------------------------------------|
a--2-2-2---2-2-2---5-5-5---5-5-5---5-5-5---5-5-5-------|
e--0-0-0---0-0-0---3-3-3---3-3-3---3-3-3---3-3-3-------|


e------------------------------------------------------|
b------------------------------------------------------|
g------------------------------------------------------|
d------------------------------------------------------|
a---2--3--3----2--3--3---------------------------------|
e---0--1--1----0--1--1---------------------------------|

e------------------------------------------------------|
b------------------------------------------------------|
g------------------------------------------------------|
d------------------------------------------------------|
a--2-2-2---2-2-2---2-2-2---2-2-2---2-2-2---2-2-2-------|
e--0-0-0---0-0-0---0-0-0---0-0-0---0-0-0---0-0-0-------|


e------------------------------------------------------|
b------------------------------------------------------|
g------------------------------------------------------|
d------------------------------------------------------|
a--2-2-2---2-2-2---5-5-5---5-5-5---5-5-5---5-5-5-------|
e--0-0-0---0-0-0---3-3-3---3-3-3---3-3-3---3-3-3-------|

e------------------------------------------------------|
b------------------------------------------------------|
g------------------------------------------------------|
d------------------------------------------------------|
a---4-4-4---4-4-4---4-4-4---4-4-4----------------------|
e---2-2-2---2-2-2---2-2-2---2-2-2----------------------|


e------------------------------------------------------|
b------------------------------------------------------|
g------------------------------------------------------|
d------------------------------------------------------|
a--2-2-2---2-2-2---2-2-2---2-2-2---2-2-2---2-2-2-------|
e--0-0-0---0-0-0---0-0-0---0-0-0---0-0-0---0-0-0-------|


e------------------------------------------------------|
b------------------------------------------------------|
g------------------------------------------------------|
d------------------------------------------------------|
a--2-2-2---2-2-2---5-5-5---5-5-5---5-5-5---5-5-5-------|
e--0-0-0---0-0-0---3-3-3---3-3-3---3-3-3---3-3-3-------|


e------------------------------------------------------|
b------------------------------------------------------|
g------------------------------------------------------|
d-------------------------2----------------------------|
a---2--3--3----2--3--3----2----------------------------|
e---0--1--1----0--1--1----0----------------------------|



why it’s so hard…
e------------------------------------------------------|
b------------------------------------------------------|
g------------------------------------------------------|
d------------------------------------------------------|
a---2--5--7--8--7--5---2--5--8--7----------------------|
e---0--3--5--6--5--3---0--3--6--5----------------------|  X4


Slide twice..


Can u smell…
e------------------------------------------------------|
b------------------------------------------------------|
g------------------------------------------------------|
d------------------------------------------------------|
a---2--------------2------2-------------2--------------|
e---0—-3~--0—-2~---0------0--3~--0--2~--0--------------|


e------------------------------------------------------|
b------------------------------------------------------|
g------------------------------------------------------|
d------------------------------------------------------|
a---2--------------2------2---------3*--2--------------|
e---0—-3~--0—-2~---0------0--3~--0------0--------------|


e------------------------------------------------------|
b------------------------------------------------------|
g------------------------------------------------------|
d------------------------------------------------------|
a---2--------------2------2-------------2--------------|
e---0—-3~--0—-2~---0------0--3~--0--2~--0--------------| x2


gtr1
e------------------------------------------------------|
b------------------------------------------------------|
g------------------------------------------------------|
d------------------------------------------------------|
a---8--6-----------------------------------------------| 
e---------8--7---0--6--7--8--0--7----------------------| x4

gtr2
e------------------------------------------------------|
b------------------------------------------------------|
g---10--8----------------------------------------------|
d----------10--9---0--8--9--10--0--9-------------------|
a------------------------------------------------------|
e------------------------------------------------------| x4

gtr3
e------------------------------------------------------|
b------------------------------------------------------|
g------------------------------------------------------|
d------------------------------------------------------|
a-2-----------2-2-----------2-2-----------2-2---2------|
e-0-0-0-0-0-0-0-0-0-0-0-0-0-0-0-0-0-0-0-0-0-0-x-0-x-x--|

e------------------------------------------------------|
b------------------------------------------------------|
g------------------------------------------------------|
d-----------------------------------------2-2-2--------|
a-2-----------2-2-----------2-2-----------2-2-2--------|
e-0-0-0-0-0-0-0-0-0-0-0-0-0-0-0-0-0-0-0-0-0-0-0--------|


(screams)
e------------------------------------------------------|
b------------------------------------------------------|
g------------------------------------------------------|
d------------------------------------------------------|
a--2--3--3--2--3--3--2--3---3--4--4--3--4--4--3--4-----|
e--0--1--1--0--1--1--0--1---1--2--2--1--2--2--1--2-----|


Chorus
e------------------------------------------------------|
b------------------------------------------------------|
g------------------------------------------------------|
d------------------------------------------------------|
a--2-2-2---2-2-2---2-2-2---2-2-2---2-2-2---2-2-2-------|
e--0-0-0---0-0-0---0-0-0---0-0-0---0-0-0---0-0-0-------|

e------------------------------------------------------|
b------------------------------------------------------|
g------------------------------------------------------|
d------------------------------------------------------|
a--2-2-2---2-2-2---5-5-5---5-5-5---5-5-5---5-5-5-------|
e--0-0-0---0-0-0---3-3-3---3-3-3---3-3-3---3-3-3-------|


e------------------------------------------------------|
b------------------------------------------------------|
g------------------------------------------------------|
d------------------------------------------------------|
a---4-4-4---4-4-4---4-4-4---4-4-4----------------------|
e---2-2-2---2-2-2---2-2-2---2-2-2----------------------| x2


e------------------------------------------------------|
b------------------------------------------------------|
g------------------------------------------------------|
d------------------------------------------------------|
a--2-2-2---2-2-2---2-2-2---2-2-2---2-2-2---2-2-2-------|
e--0-0-0---0-0-0---0-0-0---0-0-0---0-0-0---0-0-0-------|


e------------------------------------------------------|
b------------------------------------------------------|
g------------------------------------------------------|
d------------------------------------------------------|
a--2-2-2---2-2-2---5-5-5---5-5-5---5-5-5---5-5-5-------|
e--0-0-0---0-0-0---3-3-3---3-3-3---3-3-3---3-3-3-------|


e------------------------------------------------------|
b------------------------------------------------------|
g------------------------------------------------------|
d------------------------------------------------------|
a---2--3--3----2--3--3---------------------------------|
e---0--1--1----0--1--1---------------------------------|


e------------------------------------------------------|
b------------------------------------------------------|
g------------------------------------------------------|
d------------------------------------------------------|
a--2-2-2---2-2-2---2-2-2---2-2-2---2-2-2---2-2-2-------|
e--0-0-0---0-0-0---0-0-0---0-0-0---0-0-0---0-0-0-------|


e------------------------------------------------------|
b------------------------------------------------------|
g------------------------------------------------------|
d------------------------------------------------------|
a--2-2-2---2-2-2---5-5-5---5-5-5---5-5-5---5-5-5-------|
e--0-0-0---0-0-0---3-3-3---3-3-3---3-3-3---3-3-3-------|


e------------------------------------------------------|
b------------------------------------------------------|
g------------------------------------------------------|
d------------------------------------------------------|
a---4-4-4---4-4-4---4-4-4---4-4-4----------------------|
e---2-2-2---2-2-2---2-2-2---2-2-2----------------------|


e------------------------------------------------------|
b------------------------------------------------------|
g------------------------------------------------------|
d------------------------------------------------------|
a--2-2-2---2-2-2---2-2-2---2-2-2---2-2-2---2-2-2-------|
e--0-0-0---0-0-0---0-0-0---0-0-0---0-0-0---0-0-0-------|


e------------------------------------------------------|
b------------------------------------------------------|
g------------------------------------------------------|
d------------------------------------------------------|
a--2-2-2---2-2-2---5-5-5---5-5-5---5-5-5---5-5-5-------|
e--0-0-0---0-0-0---3-3-3---3-3-3---3-3-3---3-3-3-------|


e------------------------------------------------------|
b------------------------------------------------------|
g------------------------------------------------------|
d-------------------------2----------------------------|
a---2--3--3----2--3--3----2----------------------------|
e---0--1--1----0--1--1----0----------------------------|


breakdown

e------------------------------------------------------|
b------------------------------------------------------|
g------------------------------------------------------|
d---------------2--------------------------------------|
a---2-2-2-2-2-2-2---2-2-2-2---2-2-2-2-2-2--------------|
e---0-0-0-0-0-0-0---0-0-0-0---0-0-0-0-0-0--------------|

e------------------------------------------------------|
b------------------------------------------------------|
g------------------------------------------------------|
d---------------2--------------------------------------|
a---2-2-2-2-2-2-2—-3*--2-2-2-2---2-2-2-2-2-2-----------|
e---0-0-0-0-0-0-0------0-0-0-0---0-0-0-0-0-0-----------| x2

e------------------------------------------------------|
b------------------------------------------------------|
g------------------------------------------------------|
d---------------2--------------------------------------|
a---2-2-2-2-2-2-2-------2-2-2-2---2-2-2-2-2-2----------|
e---0-0-0-0-0-0-0—-1~---0-0-0-0---0-0-0-0-0-0----------|

e------------------------------------------------------|
b------------------------------------------------------|
g------------------------------------------------------|
d---------------2--------------------------------------|
a---2-2-2-2-2-2-2----------2-2-2-2---2-2-2-2-2-2-------|
e---0-0-0-0-0-0-0---15/3---0-0-0-0---0-0-0-0-0-0-------| x2
Tap to rate this tab
# A B C D E F G H I J K L M N O P Q R S T U V W X Y Z