Song name
# A B C D E F G H I J K L M N O P Q R S T U V W X Y Z

Misc Unsigned Bands - Maligno - The Red Witch tab

            PM       >                     PM            >          
       Q    E  E  E  E  Q     Q       Q    Q    E  E  E  E   E  E   
D#||-------------------------------|-------------------------------|
A#||-------------------------------|-------------------------------|
F#||*------------------------------|-------------------------------|
C#||*----------------5-------------|------------------5--7p--5-----|
G#||-----------5--7-----6~----5----|------------5--7------------7--|
D#||---0----0----------------------|--0----0-----------------------|


                           PM       >              
  E  E  E  E  Q       Q    E  E  E  E  Q     Q     
-------------------|------------------------------|
-------------------|------------------------------|
-------------------|------------------------------|
-------------------|----------------5-------------|
--6--5--7--5-------|----------5--7-----6~----5----|
--------------0----|--0----0----------------------|


       PM            >                              
  Q    Q    E  E  E  E   E  E     E  E  E  E  Q     
-------------------------------|-------------------|
-------------------------------|-------------------|
-------------------------------|-------------------|
------------------5--7p--5-----|-------------------|
------------5--7------------7--|--6--5--7--5-------|
--0----0-----------------------|--------------0----|


       PM       >                     PM            >          
  Q    E  E  E  E  Q     Q       Q    Q    E  E  E  E   E  E   
------------------------------|-------------------------------|
------------------------------|-------------------------------|
------------------------------|-------------------------------|
----------------5-------------|------------------5--7p--5-----|
----------5--7-----6~----5----|------------5--7------------7--|
--0----0----------------------|--0----0-----------------------|


                           PM       >              
  E  E  E  E  Q       Q    E  E  E  E  Q     Q     
-------------------|------------------------------|
-------------------|------------------------------|
-------------------|------------------------------|
-------------------|----------------5-------------|
--6--5--7--5-------|----------5--7-----6~----5----|
--------------0----|--0----0----------------------|


       PM            >                              
  Q    Q    E  E  E  E   E  E     E  E  E  E  Q     
-------------------------------|-------------------|
-------------------------------|-------------------|
-------------------------------|-------------------|
------------------5--7p--5-----|-------------------|
------------5--7------------7--|--6--5--7--5-------|
--0----0-----------------------|--------------0----|


       PM       >                     PM            >          
  Q    E  E  E  E  Q     Q       Q    Q    E  E  E  E   E  E   
------------------------------|-------------------------------|
------------------------------|-------------------------------|
------------------------------|-------------------------------|
----------------5-------------|------------------5--7p--5-----|
----------5--7-----6~----5----|------------5--7------------7--|
--0----0----------------------|--0----0-----------------------|


                           PM       >              
  E  E  E  E  Q       Q    E  E  E  E  Q     Q     
-------------------|------------------------------|
-------------------|------------------------------|
-------------------|------------------------------|
-------------------|----------------5-------------|
--6--5--7--5-------|----------5--7-----6~----5----|
--------------0----|--0----0----------------------|


       PM            >                              
  Q    Q    E  E  E  E   E  E     E  E  E  E  Q     
-------------------------------|-------------------|
-------------------------------|-------------------|
-------------------------------|-------------------|
------------------5--7p--5-----|-------------------|
------------5--7------------7--|--6--5--7--5-------|
--0----0-----------------------|--------------0----|


       PM       >                     PM            >          
  Q    E  E  E  E  Q     Q       Q    Q    E  E  E  E   E  E   
------------------------------|-------------------------------|
------------------------------|-------------------------------|
------------------------------|-------------------------------|
----------------5-------------|------------------5--7p--5-----|
----------5--7-----6~----5----|------------5--7------------7--|
--0----0----------------------|--0----0-----------------------|


                           PM       >              
  E  E  E  E  Q       Q    E  E  E  E  Q     Q     
-------------------|------------------------------|
-------------------|------------------------------|
-------------------|------------------------------|
-------------------|----------------5-------------|
--6--5--7--5-------|----------5--7-----6~----5----|
--------------0----|--0----0----------------------|


       PM            >                              
  Q    Q    E  E  E  E   E  E     E  E  E  E  Q     
-------------------------------|-------------------|
-------------------------------|-------------------|
-------------------------------|-------------------|
------------------5--7p--5-----|-------------------|
------------5--7------------7--|--6--5--7--5-------|
--0----0-----------------------|--------------0----|


  E   E  E  E   E  E  E   E  E  E      E  E  E   E  E  E   E  E  E  E   
------------------------------------|----------------------------------|
------------------------------------|----------------------------------|
------------------------------------|----------------------------------|
------------------------------------|----------------------------------|
--5h--7-----7p--5-----8p--7-----7p--|--5-----5h--7-----7p--5-----------|
---------0---------0---------0------|-----0---------0------------6--6--|


  E  Q        E   E  E  E   E  E  E   E  E  E    
-----------|------------------------------------|
-----------|------------------------------------|
-----------|------------------------------------|
-----------|------------------------------------|
-----7~----|--5h--7-----7p--5-----8p--7-----7p--|
--6--------|---------0---------0---------0------|


  E  E  E   E  E  E   E  E  E  E     E  Q      
----------------------------------|-----------|
----------------------------------|-----------|
----------------------------------|-----------|
----------------------------------|-----------|
--5-----5h--7-----7p--5-----------|-----7~----|
-----0---------0------------6--6--|--6--------|


  E   E  E  E   E  E  E   E  E  E      E  E  E   E  E  E   E  E  E  E   
------------------------------------|----------------------------------|
------------------------------------|----------------------------------|
------------------------------------|----------------------------------|
------------------------------------|----------------------------------|
--5h--7-----7p--5-----8p--7-----7p--|--5-----5h--7-----7p--5-----------|
---------0---------0---------0------|-----0---------0------------6--6--|


  E  Q        E   E  E  E   E  E  E   E  E  E    
-----------|------------------------------------|
-----------|------------------------------------|
-----------|------------------------------------|
-----------|------------------------------------|
-----7~----|--5h--7-----7p--5-----8p--7-----7p--|
--6--------|---------0---------0---------0------|


  E  E  E   E  E  E   E  E  E  E     E  Q      
----------------------------------|-----------|
----------------------------------|-----------|
----------------------------------|-----------|
----------------------------------|-----------|
--5-----5h--7-----7p--5-----------|-----7~----|
-----0---------0------------6--6--|--6--------|


  E   E  E  E   E  E  E   E  E  E      E  E  E   E  E  E   E  E  E  E   
------------------------------------|----------------------------------|
------------------------------------|----------------------------------|
------------------------------------|----------------------------------|
------------------------------------|----------------------------------|
--5h--7-----7p--5-----8p--7-----7p--|--5-----5h--7-----7p--5-----------|
---------0---------0---------0------|-----0---------0------------6--6--|


  E  Q        E   E  E  E   E  E  E   E  E  E    
-----------|------------------------------------|
-----------|------------------------------------|
-----------|------------------------------------|
-----------|------------------------------------|
-----7~----|--5h--7-----7p--5-----8p--7-----7p--|
--6--------|---------0---------0---------0------|


  E  E  E   E  E  E   E  E  E  E     E  Q      
----------------------------------|-----------|
----------------------------------|-----------|
----------------------------------|-----------|
----------------------------------|-----------|
--5-----5h--7-----7p--5-----------|-----7~----|
-----0---------0------------6--6--|--6--------|


  E   E  E  E   E  E  E   E  E  E      E  E  E   E  E  E   E  E  E  E   
------------------------------------|----------------------------------|
------------------------------------|----------------------------------|
------------------------------------|----------------------------------|
------------------------------------|----------------------------------|
--5h--7-----7p--5-----8p--7-----7p--|--5-----5h--7-----7p--5-----------|
---------0---------0---------0------|-----0---------0------------6--6--|


  E  Q        E   E  E  E   E  E  E   E  E  E    
-----------|------------------------------------|
-----------|------------------------------------|
-----------|------------------------------------|
-----------|------------------------------------|
-----7~----|--5h--7-----7p--5-----8p--7-----7p--|
--6--------|---------0---------0---------0------|


  E  E  E   E  E  E   E  E  E  E     E  Q      
----------------------------------|-----------|
----------------------------------|-----------|
----------------------------------|-----------|
----------------------------------|-----------|
--5-----5h--7-----7p--5-----------|-----7~----|
-----0---------0------------6--6--|--6--------|


  E   E  E  E   E  E  E   E  E  E      E  E  E   E  E  E   E  E  E  E   
------------------------------------|----------------------------------|
------------------------------------|----------------------------------|
------------------------------------|----------------------------------|
------------------------------------|----------------------------------|
--5h--7-----7p--5-----8p--7-----7p--|--5-----5h--7-----7p--5-----------|
---------0---------0---------0------|-----0---------0------------6--6--|


  E  Q        E   E  E  E   E  E  E   E  E  E    
-----------|------------------------------------|
-----------|------------------------------------|
-----------|------------------------------------|
-----------|------------------------------------|
-----7~----|--5h--7-----7p--5-----8p--7-----7p--|
--6--------|---------0---------0---------0------|


  E  E  E   E  E  E   E  E  E  E     E  Q      
----------------------------------|-----------|
----------------------------------|-----------|
----------------------------------|-----------|
----------------------------------|-----------|
--5-----5h--7-----7p--5-----------|-----7~----|
-----0---------0------------6--6--|--6--------|


            >              >              >              >     
  E   E  E  Q    E   E  E  Q    E   E  E  Q    E   E  E  Q     
--------------------------------------------------------------|
--------------------------------------------------------------|
--------------------------------------------------------------|
--7---9-----9----7---9-----9----7---9-----9----7---9-----9----|
--5s--7-----7----5s--7-----7----5s--7-----7----5s--7-----7----|
--------------------------------------------------------------|


       PM PM PM  PM  PM  PM PM PM PM PM PM PM PM PM PM PM PM PM       
  Q    E  E  E   E   E   E  E  E  E  E  E  E  E  E  E  E  E  E  Q     
---------------------------------------------------------------------|
---------------------------------------------------------------------|
---------------------------------------------------------------------|
-------------------------------------7--7--7--8--8--8--4--4--4--5----|
-------7--7--7--10--10--10--9--9--9----------------------------------|
--0------------------------------------------------------------------|


            >              >              >              >     
  E   E  E  Q    E   E  E  Q    E   E  E  Q    E   E  E  Q     
--------------------------------------------------------------|
--------------------------------------------------------------|
--------------------------------------------------------------|
--7---9-----9----7---9-----9----7---9-----9----7---9-----9----|
--5s--7-----7----5s--7-----7----5s--7-----7----5s--7-----7----|
--------------------------------------------------------------|


       PM PM PM  PM  PM  PM PM PM PM PM PM PM PM PM PM PM PM PM       
  Q    E  E  E   E   E   E  E  E  E  E  E  E  E  E  E  E  E  E  Q     
---------------------------------------------------------------------|
---------------------------------------------------------------------|
---------------------------------------------------------------------|
-------------------------------------7--7--7--8--8--8--4--4--4--5----|
-------7--7--7--10--10--10--9--9--9----------------------------------|
--0------------------------------------------------------------------|


            >              >              >              >     
  E   E  E  Q    E   E  E  Q    E   E  E  Q    E   E  E  Q     
--------------------------------------------------------------|
--------------------------------------------------------------|
--------------------------------------------------------------|
--7---9-----9----7---9-----9----7---9-----9----7---9-----9----|
--5s--7-----7----5s--7-----7----5s--7-----7----5s--7-----7----|
--------------------------------------------------------------|


       PM PM PM  PM  PM  PM PM PM PM PM PM PM PM PM PM PM PM PM   PH    
  Q    E  E  E   E   E   E  E  E  E  E  E  E  E  E  E  E  E  E    Q     
-----------------------------------------------------------------------|
-----------------------------------------------------------------------|
-----------------------------------------------------------------------|
-------------------------------------7--7--7--8--8--8--4--4--4--<>5----|
-------7--7--7--10--10--10--9--9--9------------------------------------|
--0--------------------------------------------------------------------|


  E   E  E  E   E  E  E   E  E  E      E  E  E   E  E  E   E  E  E  E   
------------------------------------|----------------------------------|
------------------------------------|----------------------------------|
------------------------------------|----------------------------------|
------------------------------------|----------------------------------|
--5h--7-----7p--5-----8p--7-----7p--|--5-----5h--7-----7p--5-----------|
---------0---------0---------0------|-----0---------0------------6--6--|


  E  Q        E   E  E  E   E  E  E   E  E  E    
-----------|------------------------------------|
-----------|------------------------------------|
-----------|------------------------------------|
-----------|------------------------------------|
-----7~----|--5h--7-----7p--5-----8p--7-----7p--|
--6--------|---------0---------0---------0------|


  E  E  E   E  E  E   E  E  E  E     E  Q      
----------------------------------|-----------|
----------------------------------|-----------|
----------------------------------|-----------|
----------------------------------|-----------|
--5-----5h--7-----7p--5-----------|-----7~----|
-----0---------0------------6--6--|--6--------|


  E   E  E  E   E  E  E   E  E  E      E  E  E   E  E  E   E  E  E  E   
------------------------------------|----------------------------------|
------------------------------------|----------------------------------|
------------------------------------|----------------------------------|
------------------------------------|----------------------------------|
--5h--7-----7p--5-----8p--7-----7p--|--5-----5h--7-----7p--5-----------|
---------0---------0---------0------|-----0---------0------------6--6--|


  E  Q        E   E  E  E   E  E  E   E  E  E    
-----------|------------------------------------|
-----------|------------------------------------|
-----------|------------------------------------|
-----------|------------------------------------|
-----7~----|--5h--7-----7p--5-----8p--7-----7p--|
--6--------|---------0---------0---------0------|


  E  E  E   E  E  E   E  E  E  E     E  Q      
----------------------------------|-----------|
----------------------------------|-----------|
----------------------------------|-----------|
----------------------------------|-----------|
--5-----5h--7-----7p--5-----------|-----7~----|
-----0---------0------------6--6--|--6--------|


  E   E  E  E   E  E  E   E  E  E      E  E  E   E  E  E   E  E  E  E   
------------------------------------|----------------------------------|
------------------------------------|----------------------------------|
------------------------------------|----------------------------------|
------------------------------------|----------------------------------|
--5h--7-----7p--5-----8p--7-----7p--|--5-----5h--7-----7p--5-----------|
---------0---------0---------0------|-----0---------0------------6--6--|


  E  Q        E   E  E  E   E  E  E   E  E  E    
-----------|------------------------------------|
-----------|------------------------------------|
-----------|------------------------------------|
-----------|------------------------------------|
-----7~----|--5h--7-----7p--5-----8p--7-----7p--|
--6--------|---------0---------0---------0------|


  E  E  E   E  E  E   E  E  E  E     E  Q      
----------------------------------|-----------|
----------------------------------|-----------|
----------------------------------|-----------|
----------------------------------|-----------|
--5-----5h--7-----7p--5-----------|-----7~----|
-----0---------0------------6--6--|--6--------|


  E   E  E  E   E  E  E   E  E  E      E  E  E   E  E  E   E  E  E  E   
------------------------------------|----------------------------------|
------------------------------------|----------------------------------|
------------------------------------|----------------------------------|
------------------------------------|----------------------------------|
--5h--7-----7p--5-----8p--7-----7p--|--5-----5h--7-----7p--5-----------|
---------0---------0---------0------|-----0---------0------------6--6--|


  E  Q        E   E  E  E   E  E  E   E  E  E    
-----------|------------------------------------|
-----------|------------------------------------|
-----------|------------------------------------|
-----------|------------------------------------|
-----7~----|--5h--7-----7p--5-----8p--7-----7p--|
--6--------|---------0---------0---------0------|


  E  E  E   E  E  E   E  E  E  E     E  Q      
----------------------------------|-----------|
----------------------------------|-----------|
----------------------------------|-----------|
----------------------------------|-----------|
--5-----5h--7-----7p--5-----------|-----7~----|
-----0---------0------------6--6--|--6--------|


  E   E  E  E   E  E  E   E  E  E      E  E  E   E  E  E   E  E  E  E   
------------------------------------|----------------------------------|
------------------------------------|----------------------------------|
------------------------------------|----------------------------------|
------------------------------------|----------------------------------|
--5h--7-----7p--5-----8p--7-----7p--|--5-----5h--7-----7p--5-----------|
---------0---------0---------0------|-----0---------0------------6--6--|


  E  Q        E   E  E  E   E  E  E   E  E  E    
-----------|------------------------------------|
-----------|------------------------------------|
-----------|------------------------------------|
-----------|------------------------------------|
-----7~----|--5h--7-----7p--5-----8p--7-----7p--|
--6--------|---------0---------0---------0------|


  E  E  E   E  E  E   E  E  E  E     E  Q      
----------------------------------|-----------|
----------------------------------|-----------|
----------------------------------|-----------|
----------------------------------|-----------|
--5-----5h--7-----7p--5-----------|-----7~----|
-----0---------0------------6--6--|--6--------|


            >              >              >              >     
  E   E  E  Q    E   E  E  Q    E   E  E  Q    E   E  E  Q     
--------------------------------------------------------------|
--------------------------------------------------------------|
--------------------------------------------------------------|
--7---9-----9----7---9-----9----7---9-----9----7---9-----9----|
--5s--7-----7----5s--7-----7----5s--7-----7----5s--7-----7----|
--------------------------------------------------------------|


       PM PM PM  PM  PM  PM PM PM PM PM PM PM PM PM PM PM PM PM       
  Q    E  E  E   E   E   E  E  E  E  E  E  E  E  E  E  E  E  E  Q     
---------------------------------------------------------------------|
---------------------------------------------------------------------|
---------------------------------------------------------------------|
-------------------------------------7--7--7--8--8--8--4--4--4--5----|
-------7--7--7--10--10--10--9--9--9----------------------------------|
--0------------------------------------------------------------------|


            >              >              >              >     
  E   E  E  Q    E   E  E  Q    E   E  E  Q    E   E  E  Q     
--------------------------------------------------------------|
--------------------------------------------------------------|
--------------------------------------------------------------|
--7---9-----9----7---9-----9----7---9-----9----7---9-----9----|
--5s--7-----7----5s--7-----7----5s--7-----7----5s--7-----7----|
--------------------------------------------------------------|


       PM PM PM  PM  PM  PM PM PM PM PM PM PM PM PM PM PM PM PM       
  Q    E  E  E   E   E   E  E  E  E  E  E  E  E  E  E  E  E  E  Q     
---------------------------------------------------------------------|
---------------------------------------------------------------------|
---------------------------------------------------------------------|
-------------------------------------7--7--7--8--8--8--4--4--4--5----|
-------7--7--7--10--10--10--9--9--9----------------------------------|
--0------------------------------------------------------------------|


            >              >              >              >     
  E   E  E  Q    E   E  E  Q    E   E  E  Q    E   E  E  Q     
--------------------------------------------------------------|
--------------------------------------------------------------|
--------------------------------------------------------------|
--7---9-----9----7---9-----9----7---9-----9----7---9-----9----|
--5s--7-----7----5s--7-----7----5s--7-----7----5s--7-----7----|
--------------------------------------------------------------|


       PM PM PM  PM  PM  PM PM PM PM PM PM PM PM PM PM PM PM PM       
  Q    E  E  E   E   E   E  E  E  E  E  E  E  E  E  E  E  E  E  Q     
---------------------------------------------------------------------|
---------------------------------------------------------------------|
---------------------------------------------------------------------|
-------------------------------------7--7--7--8--8--8--4--4--4--5----|
-------7--7--7--10--10--10--9--9--9----------------------------------|
--0------------------------------------------------------------------|


            >              >              >              >     
  E   E  E  Q    E   E  E  Q    E   E  E  Q    E   E  E  Q     
--------------------------------------------------------------|
--------------------------------------------------------------|
--------------------------------------------------------------|
--7---9-----9----7---9-----9----7---9-----9----7---9-----9----|
--5s--7-----7----5s--7-----7----5s--7-----7----5s--7-----7----|
--------------------------------------------------------------|


       PM PM PM  PM  PM  PM PM PM PM PM PM PM PM PM PM PM PM PM       
  Q    E  E  E   E   E   E  E  E  E  E  E  E  E  E  E  E  E  E  Q     
---------------------------------------------------------------------|
---------------------------------------------------------------------|
---------------------------------------------------------------------|
-------------------------------------7--7--7--8--8--8--4--4--4--5----|
-------7--7--7--10--10--10--9--9--9----------------------------------|
--0------------------------------------------------------------------|


       PM PM PM  PM  PM  PM PM PM PM PM PM PM PM PM PM PM PM PM       
  Q    E  E  E   E   E   E  E  E  E  E  E  E  E  E  E  E  E  E  Q     
---------------------------------------------------------------------|
---------------------------------------------------------------------|
---------------------------------------------------------------------|
-------------------------------------7--7--7--8--8--8--4--4--4--5----|
-------7--7--7--10--10--10--9--9--9----------------------------------|
--0------------------------------------------------------------------|


       PM PM PM  PM  PM  PM PM PM PM PM PM PM PM PM PM PM PM PM       
  Q    E  E  E   E   E   E  E  E  E  E  E  E  E  E  E  E  E  E  Q     
---------------------------------------------------------------------|
---------------------------------------------------------------------|
---------------------------------------------------------------------|
-------------------------------------7--7--7--8--8--8--4--4--4--5----|
-------7--7--7--10--10--10--9--9--9----------------------------------|
--0------------------------------------------------------------------|


       PM PM PM  PM  PM  PM PM PM PM PM PM PM PM PM PM PM PM PM       
  Q    E  E  E   E   E   E  E  E  E  E  E  E  E  E  E  E  E  E  Q     
---------------------------------------------------------------------|
---------------------------------------------------------------------|
---------------------------------------------------------------------|
-------------------------------------7--7--7--8--8--8--4--4--4--5----|
-------7--7--7--10--10--10--9--9--9----------------------------------|
--0------------------------------------------------------------------|


  E  E  E  E  E  E  E  E  E  E  E  E  E  E  E  E   
--------------------------------------------------|
--------------------------------------------------|
--------------------------------------------------|
--------------------------------------------------|
--------------------------------------------------|
--6--6--0--6--6--0--6--0--6--6--0--6--6--0--6--0--|


  E  E  E  E  E  E  E  E  E  E  E  E  E  E  E  E     E  E  E  E  Q     
--------------------------------------------------|-------------------|
--------------------------------------------------|-------------------|
--------------------------------------------------|-------------------|
--------------------------------------------------|-------------------|
--------------------------------------------------|--------------2----|
--6--6--0--6--6--0--6--0--6--6--0--6--6--0--6--0--|--0--2--3--4-------|


  E  E  E  E  E  E  E  E  E  E  E  E  E  E  E  E     E  E  E  E  Q     
--------------------------------------------------|-------------------|
--------------------------------------------------|-------------------|
--------------------------------------------------|-------------------|
--------------------------------------------------|-------------------|
--------------------------------------------------|--------------2----|
--6--6--0--6--6--0--6--0--6--6--0--6--6--0--6--0--|--0--2--3--4-------|


  E  E  E  E  E  E  E  E  E  E  E  E  E  E  E  E     E  E  E  E  Q     
--------------------------------------------------|-------------------|
--------------------------------------------------|-------------------|
--------------------------------------------------|-------------------|
--------------------------------------------------|-------------------|
--------------------------------------------------|--------------2----|
--6--6--0--6--6--0--6--0--6--6--0--6--6--0--6--0--|--0--2--3--4-------|


  E  E  E  E  E  E  E  E  E  E  E  E  E  E  E  E     E  E  E  E  Q     
--------------------------------------------------|-------------------|
--------------------------------------------------|-------------------|
--------------------------------------------------|-------------------|
--------------------------------------------------|-------------------|
--------------------------------------------------|--------------2----|
--6--6--0--6--6--0--6--0--6--6--0--6--6--0--6--0--|--0--2--3--4-------|


  E  E  E  E  E  E  E  E  E  E  E  E  E  E  E  E     E  E  E  E  Q     
--------------------------------------------------|-------------------|
--------------------------------------------------|-------------------|
--------------------------------------------------|-------------------|
--------------------------------------------------|-------------------|
--------------------------------------------------|--------------2----|
--6--6--0--6--6--0--6--0--6--6--0--6--6--0--6--0--|--0--2--3--4-------|


  E  E  E  E  E  E  E  E  E  E  E  E  E  E  E  E     E  E  E  E  Q     
--------------------------------------------------|-------------------|
--------------------------------------------------|-------------------|
--------------------------------------------------|-------------------|
--------------------------------------------------|-------------------|
--------------------------------------------------|--------------2----|
--6--6--0--6--6--0--6--0--6--6--0--6--6--0--6--0--|--0--2--3--4-------|


  E  E  E  E  E  E  E  E  E  E  E  E  E  E  E  E     E  E  E  E  Q     
--------------------------------------------------|-------------------|
--------------------------------------------------|-------------------|
--------------------------------------------------|-------------------|
--------------------------------------------------|-------------------|
--------------------------------------------------|--------------2----|
--6--6--0--6--6--0--6--0--6--6--0--6--6--0--6--0--|--0--2--3--4-------|


  E  E  E  E  E  E  E  E  E  E  E  E  E  E  E  E     E  E  E  E  Q     
--------------------------------------------------|-------------------|
--------------------------------------------------|-------------------|
--------------------------------------------------|-------------------|
--------------------------------------------------|-------------------|
--------------------------------------------------|--------------2----|
--6--6--0--6--6--0--6--0--6--6--0--6--6--0--6--0--|--0--2--3--4-------|


  E  S E  E  E  E  E  E  E  E  E  E  E  E  E  E  E  E  E  E  E   
----------------------------------------------------------------|
----------------------------------------------------------------|
----------------------------------------------------------------|
--7----7-----7--7--7-----7--7--7-----7--7--7--------------------|
--5----7-----5--5--5-----5--5--5-----5--5--5-----------------2--|
-------------------------------------------------0--2--3--4-----|


  E  S E  E  E  E  E  E  E  E  E  E  E  E  E  E  E  E  E  E  E   
----------------------------------------------------------------|
----------------------------------------------------------------|
----------------------------------------------------------------|
--7----7-----7--7--7-----7--7--7-----7--7--7--------------------|
--5----7-----5--5--5-----5--5--5-----5--5--5-----------------2--|
-------------------------------------------------0--2--3--4-----|


  E  S E  E  E  E  E  E  E  E  E  E  E  E  E  E  E  E  E  E  E   
----------------------------------------------------------------|
----------------------------------------------------------------|
----------------------------------------------------------------|
--7----7-----7--7--7-----7--7--7-----7--7--7--------------------|
--5----7-----5--5--5-----5--5--5-----5--5--5-----------------2--|
-------------------------------------------------0--2--3--4-----|


  E  S E  E  E  E  E  E  E  E  E  E  E  E  E  E  E  E  E  E  E   
----------------------------------------------------------------|
----------------------------------------------------------------|
----------------------------------------------------------------|
--7----7-----7--7--7-----7--7--7-----7--7--7--------------------|
--5----7-----5--5--5-----5--5--5-----5--5--5-----------------2--|
-------------------------------------------------0--2--3--4-----|


                               PM       >              
  Q    Q    Q    Q        Q    E  E  E  E  Q     Q     
-----------------------|------------------------------|
-----------------------|------------------------------|
-----------------------|------------------------------|
-----------------------|----------------5-------------|
--7----5---------------|----------5--7-----6~----5----|
------------8----7~----|--0----0----------------------|


       PM            >                              
  Q    Q    E  E  E  E   E  E     E  E  E  E  Q     
-------------------------------|-------------------|
-------------------------------|-------------------|
-------------------------------|-------------------|
------------------5--7p--5-----|-------------------|
------------5--7------------7--|--6--5--7--5-------|
--0----0-----------------------|--------------0----|


       PM       >                     PM            >          
  Q    E  E  E  E  Q     Q       Q    Q    E  E  E  E   E  E   
------------------------------|-------------------------------|
------------------------------|-------------------------------|
------------------------------|-------------------------------|
----------------5-------------|------------------5--7p--5-----|
----------5--7-----6~----5----|------------5--7------------7--|
--0----0----------------------|--0----0-----------------------|


                           PM       >              
  E  E  E  E  Q       Q    E  E  E  E  Q     Q     
-------------------|------------------------------|
-------------------|------------------------------|
-------------------|------------------------------|
-------------------|----------------5-------------|
--6--5--7--5-------|----------5--7-----6~----5----|
--------------0----|--0----0----------------------|


       PM            >                              
  Q    Q    E  E  E  E   E  E     E  E  E  E  Q     
-------------------------------|-------------------|
-------------------------------|-------------------|
-------------------------------|-------------------|
------------------5--7p--5-----|-------------------|
------------5--7------------7--|--6--5--7--5-------|
--0----0-----------------------|--------------0----|


       PM       >                     PM            >          
  Q    E  E  E  E  Q     Q       Q    Q    E  E  E  E   E  E   
------------------------------|-------------------------------|
------------------------------|-------------------------------|
------------------------------|-------------------------------|
----------------5-------------|------------------5--7p--5-----|
----------5--7-----6~----5----|------------5--7------------7--|
--0----0----------------------|--0----0-----------------------|


       PM       >                     PM            >          
  Q    E  E  E  E  Q     Q       Q    Q    E  E  E  E   E  E   
------------------------------|-------------------------------|
------------------------------|-------------------------------|
------------------------------|-------------------------------|
----------------5-------------|------------------5--7p--5-----|
----------5--7-----6~----5----|------------5--7------------7--|
--0----0----------------------|--0----0-----------------------|


                           PM       >              
  E  E  E  E  Q       Q    E  E  E  E  Q     Q     
-------------------|------------------------------|
-------------------|------------------------------|
-------------------|------------------------------|
-------------------|----------------5-------------|
--6--5--7--5-------|----------5--7-----6~----5----|
--------------0----|--0----0----------------------|


       PM            >                                      
  Q    Q    E  E  E  E   E  E     E  E  E  E  Q             
-------------------------------|-------------------|-------|
-------------------------------|-------------------|-------|
-------------------------------|-------------------|-------|
------------------5--7p--5-----|-------------------|-------|
------------5--7------------7--|--6--5--7--5-------|-------|
--0----0-----------------------|--------------0----|-------|


       PM            >                                      
  Q    Q    E  E  E  E   E  E     E  E  E  E  Q             
-------------------------------|-------------------|-------|
-------------------------------|-------------------|-------|
-------------------------------|-------------------|-------|
------------------5--7p--5-----|-------------------|-------|
------------5--7------------7--|--6--5--7--5-------|-------|
--0----0-----------------------|--------------0----|-------|


       PM            >                              
  Q    Q    E  E  E  E   E  E     E  E  E  E  Q     
-------------------------------|-------------------|
-------------------------------|-------------------|
-------------------------------|-------------------|
------------------5--7p--5-----|-------------------|
------------5--7------------7--|--6--5--7--5-------|
--0----0-----------------------|--------------0----|


       PM PM PM  PM  PM  PM PM PM PM PM PM PM PM PM PM PM PM PM       
  Q    E  E  E   E   E   E  E  E  E  E  E  E  E  E  E  E  E  E  Q     
---------------------------------------------------------------------|
---------------------------------------------------------------------|
---------------------------------------------------------------------|
-------------------------------------7--7--7--8--8--8--4--4--4--5----|
-------7--7--7--10--10--10--9--9--9----------------------------------|
--0------------------------------------------------------------------|


  E  E  E  H           
---------------------||
---------------------||
--9--9--9--9---------||
--9--9--9--9\--------||
--7--7--7--7\--------||
---------------------||




Duration Legend
---------------
W - whole
H - half
Q - quarter
E - 8th
S - 16th
T - 32nd
X - 64th
. - note dotted
|-n-|  - n-tuplets


Tablature Legend
----------------
L - tied note
x - dead note
g - grace note
(n) - ghost note
> - accentuded note
NH - natural harmonic
AH - artificial harmonic
TH - tapped harmonic
SH - semi harmonic
PH - pitch harmonic
h - hammer on
p - pull off
b - bend
br - bendRelease
pb - preBend
pbr - preBendRelease
brb - bendReleaseBend
\n/ - tremolo bar dip
\n - tremolo bar dive
-/n - tremolo bar Release up
/n\ - tremolo bar inverted dip
/n - tremolo bar return
-\n - tremolo bar Release down
S - shift slide
s - legato slide
/ -  slide into from below or out of upwards
\ -  slide into from above or out of downwards
~ - vibrato
W - wide vibrato
tr - trill
TP - tremolo picking
T - tapping
S - slap
P - pop
< - fade in
^ - brush up
v - brush down
Tap to rate this tab
 
# A B C D E F G H I J K L M N O P Q R S T U V W X Y Z