Song name
# A B C D E F G H I J K L M N O P Q R S T U V W X Y Z

Misc Unsigned Bands - Enzo Heavenly - The Real Folk Blues tab

Song: The Real Folk Blues (Acoustic Heavenly Version)
Artist: Yoko Kanno (The Seatbelts)
Arrangement and tab by: Mario "Enzo Heavenly" Montes

***Both guitars with CAPO on the 2nd fret***

***This is the way I play it, so... may not be 100% accurate***

***Video of me playing/singing it:***
http://www.youtube.com/watch?v=9YyHleoNVjo


Intro Riff/Bass (Lead Guitar)
|------------------------------------------|-------------|
|------------------------------------------|-------------|
|------------------------------------------|-------------|
|-------2-----2----5----------2-2-----2----|-let ring----|
|--2h5-----5----5-------2h5-------5-----5--|--0----------|
|------------------------------------------|-------------|


					    This is Bass arr. for Gtr
|------------------------------------------|------------------------------|
|------------------------------------------|------------------------------|
|------------------------------------------|------------------------------|
|-----2-----2----5----------2-2-----2------|------------------------------|
|-2h5-----5----5-------2h5-------5-----5---|---0------2----2-0------------|
|------------------------------------------|----------------------3--0----|


Intro (Rhythm Guitar)

  Em  G  C#m7/5-  Asus2   B5
  Em  G  C#m7/5-  Asus2   B5

Verse 1

	Em		 G
	Aishiteta to nageku ni wa

	  C#m7/5-		        Cmaj7 D5
	Amari ni mo toki wa sugi te shimatta

	Em		   G
	Mada kokoro no hokorobi wo

	   C#m7/5-		Cmaj7     D*   C   D*
	Iyasenumama kaze ga fuiteru


Verse 2

	Hitotsu no me de asu wo mite
	Hitotsu no me de kinou mitsumeteru
	Kimi no ai no yurikagode
	Mou ichido yasurakani nemuretara


Pre-chorus 1

	Am7   Bm13-    C#m7/5-   C	  B7add11	B7
	Kawaita hitomi de dareka na itekure


Chorus 1

		 Am7
	The real folk blues

	B	  G		 C#m7/5-  Cmaj7
	Hontou no kanashimi ga shiritaidake

	        Em	  B	G	     C#m7/5- Cmaj7
	Doro no kawa ni sukatta jinsei mo warukuwanai

	       B       Asus2    B    Em
	Ichido kiri de          owarunara


Turnaround:
      G  C#m7/5-  Asus2   B5
  Em  G  C#m7/5-  Asus2   B5


Verse 3

	Kibou ni michita zetsuboto
	Wanagashikakerareteru kono chansu
	Nani ga yoku te warui no ka
	Koin no omoi to kuramitaita


Pre-chorus 2

	Dore dake ikireba iyasareru no darou


Chorus 2

		 Am7
	The real folk blues

	B	  G		 C#m7/5-  Cmaj7
	Hontou no yorokobi ga shiritai dake

	       Em	 B	 Em	       	      B7add11	B7
	Hikaru mono no subete ga   ougen to wa kagiranai


Chorus 3

	The real folk blues
	Hontou no kanashimi ga shiritaidake
	Doro no kawa ni sukatta jinsei mo warukuwanai
	Ichido kiri de owarunara

Outro = As Intro (and a lot of ad-lib, nevermind that)

THE END :D!



Heavenly Chords:
	Em	 022000
	G	 320033
	C#m7/5-	 x42000
	C	 x32010
	D5	 xx0230
	Cmaj7	 x32000
	D*	 x54030
	Am7	 x02010
	Bm13-	 x24030
	B7add11	 021200
	B7	 021202
	B	 x2444x

Extra Chords
	Asus2	 x02200
	G6	 320030

NOTES:
1. Strange chords but they worth it!
2. As well, you can replace G with G6 or even use both (for acoustic matters)
3. Comments? Thanks? Corrections? etc? E-mail me!!! enzo_heavenly(at)live.com
Tap to rate this tab
# A B C D E F G H I J K L M N O P Q R S T U V W X Y Z