Song name
# A B C D E F G H I J K L M N O P Q R S T U V W X Y Z

Misc Unsigned Bands - Derek Fuhrmann - Do You Feel The Same tab

Do You Feel the Same
			   Derek Fuhrmann

			Tabbed by: See_a_Moose

This is a fairly simple song, the chords after the intro are almost identical,the only
that actually changes is the bass note in each chord.
As such I'm not entirely sure the chord names are accurate, but hopefully they'll be
enough to tell apart. I've also included the lead guitar part for the chorus underneath the
it is used in.  Personally I think the bass line is more important to the song here, but 
figured I'd toss the lead in anyways.  If you want to find out more about the artist,
was the lead singer for The Crash Motive and has recently gone solo, his myspace page 
be found here, http://www.myspace.com/derekfuhrmannmusic.  Enjoy

  B    B/Ab B/E  B/F# Bmaj7
e|-x-||-x-||-x-||-x-||-x-|
B|-4-||-4-||-4-||-4-||-4-|
G|-4-||-4-||-4-||-4-||-4-|
D|-4-||-4-||-4-||-4-||-4-|
A|-2-||-x-||-x-||-x-||-1-|
E|-x-||-4-||-0-||-2-||-x-|


Intro
 B/E      B/F#     B/Ab   B Bmaj7 B/E    B/F#     B/Ab
 |----------------|--------------|--------------------|
 |4---5---7---4---|4--------4----|4---5---7---7/9-7---|
 |----------------|--6-4----4----|----------------8---|
 |----------------|------6--4----|--------------------|
 |----------------|--------------|--------------------|
 |----------------|--------------|--------------------|


 B/E      B/F#     B/Ab   B Bmaj7  B/E   B/F#       B
 |----------------|--------------|--------------------|
 |4---5---7---4---|4--------4----|-----7~-------------|
 |----------------|--6-4----4----|--/8-------------4--|
 |----------------|------6--4----|--------4---4h6-----|
 |----------------|--------------|--------------------|
 |----------------|--------------|--------------------|

Verse 1
B            B/Ab      B/E    B/F#
   Iíve got my eyes on the road
B          B/Ab      B/E   B/F#
  Three hundred miles to go
B                 B/Ab        B/E    B/F#
  I hope when you see my face you know
B                B/Ab         B/E      B/F#
  That these open arms are yours to hold

Chorus

B/F#      B/E
Laying it all on the line
|--------|----------------|
|--------|----------------|
|--------|----------------|
|--------|1---1---1---1---|
|--------|----------------|
|--------|----------------|

B/F#                  B/Ab
Driving to see if you want to be mine
|----------------|----------------|
|----------------|----------------|
|----------------|----------------|
|4---4---4---4---|1---1---1---1---|
|----------------|----------------|
|----------------|----------------|

    B
And if we agree that
|----------------|
|----------------|
|----------------|
|4/6--4---2---1--|
|----------------|
|----------------|

B/E
Whenever we part
|----------------|
|----------------|
|4---4---4---4---|
|----------------|
|----------------|
|----------------|

B/F#                   B/Ab
Something inside of us tears at our hearts
|----------------|----------------|
|----------------|----------------|
|6---6---6---6---|8---8---8---8---|
|----------------|----------------|
|----------------|----------------|
|----------------|----------------|

  B
I just need to know

|3h4--2---0-------|
|-------------4---|
|-----------------|
|-----------------|
|-----------------|
|-----------------|

    B/E      B/F#       B/Ab
Do you feel the same
|--------------|
|--------------|
|1-------------|
|----4--2--1---|
|--------------|
|--------------|

    B/E      B/F#         B
I hope you feel the same
|--------------|
|--------------|
|1-------------|
|----4--2------|
|----------2---|
|--------------|

Verse 2:
B               B/Ab          B/E   B/F#
  It's been 30 days since we last met
B                   B/Ab            B/E      B/F#
  We both said some things I know we never meant
B               B/Ab                    B/E        B/F#
  I screamed "I just can't take it" and I walked away
B             B/Ab         B/E      B/F#
  But now I'm here running back to say

Chorus same except last line instead play:

 B/E      B/F#       B/Ab     B/F#      B/E      B/F#
I hope you feel the same
|------------------|
|------------------|
|4---1-------------|
|--------4--2--1---|
|------------------|
|------------------|

   B/Ab     B/F#      B/E      B/F#
The(held)   same(held)


Bridge:

B/Ab
I can't erase all the
B/F#                   B/E          B/F#
Thoughts of you racing around my head
B/Ab
I still believe there are
B/F#                        B/E         B/F#
Words left to say that have not been said

Chorus: same as first until  "Something inside of us tears at our hearts"
B/F#                   B/Ab
Something inside of us tears at our hearts
|----------------|       |----------------|
|----------------|       |----------------|
|6---6---6---6---|       |8---8---8---8---|
|----------------|       |----------------|
|----------------|       |----------------|
|----------------|       |----------------|

  B
It'd be so good to know

|3h4--2---0-------|
|-------------4---|
|-----------------|
|-----------------|
|-----------------|
|-----------------|


    B/E      B/F#       B/Ab
That you feel the same
|--------------|
|--------------|
|1-------------|
|----4--2--1---|
|--------------|
|--------------|

    B/E      B/F#         B
Do you feel... cuz I know
|--------------|
|--------------|
|1-------------|
|----4--2------|
|----------2---|
|--------------|

    B/E      B/F#         B/Ab
That I feel the same


     B/E    B/F#        B/E
Do    you    feel   the same

B/E  B/F#  B/Ab  B  Bmaj7
B/E  B/F#  B/Ab

    B/E  B/F#  B/Ab  B  Bmaj7    B/E    B/F#    B
Do  you        feel          the same
Tap to rate this tab
# A B C D E F G H I J K L M N O P Q R S T U V W X Y Z