Song name
# A B C D E F G H I J K L M N O P Q R S T U V W X Y Z

Misc Unsigned Bands - Humanos - Muda De Vida tab

Muda de Vida
Humanos

Tuning: Standard (EADGBe)

b  = full bend
br = bend and release
v  = vibrato
/  = slide up
p  = pull-off
h  = hammer-on



Intro

e -|-------------------------------------18b---|-
b -|-15p14h15-17b-15b-17b-20b-19-19b-15b-------|-
g -|-------------------------------------------|-
d -|-------------------------------------------|-
a -|-------------------------------------------|-
e -|-------------------------------------------|-


Refrao (Muda de vida...)

e -|---6----6----6----8---|---6----6----6----8--6---|-
b -|---6----8----6----10--|---6----8----6----10-6---|-
g -|---6----8----6----10--|---6----8----6----10-6---|-
d -|---8----8----8----10--|---8----8----8----10-8---|-
a -|---8----6----8----8---|---8----6----8----8--8---|-
e -|---6----6----6----8---|---6----6----6----8--6---|-


Riff (00:25) / (01:03)

e -|---20--18--18--13---|-
b -|--------------------|-
g -|--------------------|-
d -|--------------------|-
a -|--------------------|-
e -|--------------------|-


Verso (Ver-te sorrir...)

e -|---6--6--------6----8----6----1---|-
b -|---6--8--------6----10---8----1---|-
g -|---6--8--------6----10---8----1---|-
d -|---8--8--------8----10---8----3---|-
a -|---8--6--------8----8----6----3---|-
e -|---6--6--------6----8----6----1---|-


Bridge (Olha que a vida não…)

e -|---6----6----4----6---|-
b -|---6----8----4----6---|-
g -|---6----8----4----8---|-
d -|---8----8----6----8---|-
a -|---8----6----6----6---|-
e -|---6----6----4----6---|-




Solo (02:22)

e -|------------------------------------|-
b -|-18-18-15-11-11-15-18-20-20-16-18---|-
g -|------------------------------------|-
d -|------------------------------------|-
a -|------------------------------------|-
e -|------------------------------------|-

e -|------------------------------------|-
b -|-18-18-15-11-11-15-15-13-13---------|-
g -|------------------------------------|-
d -|------------------------------------|-
a -|------------------------------------|-
e -|------------------------------------|-

e -|------------------------------------|-
b -|-18-18-15-11-11-15-18-20-20-16-18---|-
g -|------------------------------------|-
d -|------------------------------------|-
a -|------------------------------------|-
e -|------------------------------------|-

e -|------------------------------------|-
b -|-18-18-15-11-11-15-15-10-10-10-11---|-
g -|------------------------------------|-
d -|------------------------------------|-
a -|------------------------------------|-
e -|------------------------------------|-


Tap to rate this tab
 
# A B C D E F G H I J K L M N O P Q R S T U V W X Y Z