Song name
# A B C D E F G H I J K L M N O P Q R S T U V W X Y Z

Misc Unsigned Bands - Fake British Accent - Captivecollapse tab

Hey, you can listen to the song on

www.fakebritishaccent.co.uk

Have fun!


Intro/Vers:

e-|------------------|------------------|-----2-----2---2-|-----2-----2---2-|
b-|------0-----0---0-|-----0-----0---0--|-----2-----2---2-|-----2-----2---2-|
g-|------2-----2---2-|-----2-----2---2--|-----2-----2---2-|-----2-----2---2-|
d-|------0-----0---0-|-----0-----0---0--|-----2-----2---2-|-----2-----2---2-|
a-|------2-----2---2-|-----2-----2---2--|-----4-----4---4-|-----4-----4---4-|
E-|--0-0-0-0-0-0-0-0-|-0-0-0-0-0-0-0-0--|-2-2-2-2-2-2-2-2-|-2-2-2-2-2-2-2-2-|

Chorus:

e-|-----5-----5--X-4-|-----4-------4---|-----2-----2--X-0-|-----0-------0---|
b-|-----5-----5--X-5-|-----5-------5---|-----3-----3--X-2-|-----2-------2---|
g-|-----7-----7--X-4-|-----4-------4---|-----2-----2--X-0-|-----0-------0---|
d-|-----7-----7--X-6-|-----6-------6---|-----4-----4--X-2-|-----2-------2---|
a-|-5-5-5-5-5-5--X-4-|---4-4---4-4-4---|-2-2-2-2-2-2--X-0-|---0-0---0-0-0---|
E-|--------------X---|-----------------|--------------X---|-----------------|

Outro:

e-|--------------X---|----0-----2---0--|--------------X---|----0-----2---0--|
b-|--0--0-----0--X---|----0-----0---0--|--0--0-----0--X---|----0-----0---0--|
g-|--2--2-----2--X---|----0-----0---0--|--2--2-----2--X---|----0-----0---0--|
d-|--0--0-----0--X---|----0-----0---0--|--0--0-----0--X---|----0-----0---0--|
a-|--2--2-----0--X---|----X------------|--2--2-----0--X---|----X------------|
E-|--0--0---2----X-3-|--3--------------|--0--0---2----X-3-|--3--------------|


www.fakebritishaccent.co.uk

Thanks!
Tap to rate this tab
 
# A B C D E F G H I J K L M N O P Q R S T U V W X Y Z