Song name
# A B C D E F G H I J K L M N O P Q R S T U V W X Y Z

Misc Unsigned Bands - Joey Ryan - As It Must Be chords

Highlighted       Show chord diagrams
This song consists of three chords: Bm, A, and E. Sorry about the spacing, it's
hard to tell where the letters will end up when making these.


The finger picking goes something along these lines...

Just to clarify, by x2 I mean play Bm twice before playing the A portion.


      Bm    x2                       A              A the second time add pick off
E|------------2--------|-------------0---------|-----------0--------------|
B|----3---------3---(3)-----2-----------2---(2)-----2---------2-----------|(2p0)
G|-------4--------(4)-----------2--------(2)----------2---------(2)-------|
D|----4----4---------------2- ----2---------------2-----2-----------------|
A|--2--------------------0---------------------0--------------------------|
E|---------------------|----------------------|---------------------------|
         E
E|----------------|
B|-----0--------0-|
G|---------1------|
D|-----2------2---|
A|--2-------------|
E|----------------|

 Intro:  Bm(x2), A (x2)


Bm
Maybe we'll come out of this
                                A
Maybe we'll come out of this unscathed
Bm                                A          E
Just like the story said ever after we should be okay,    okay

(chorus)

Bm
Yes, and I know that you never
        A       E
Let me go on my own
 Bm                A        E
And I know I'll never make it alone


Bm
Let it run right over you
                      A
Let it run like water to the sea
Bm
Nothing lasts forever darling
                       A
Everything is as it must be
       E
It must be


Bm
And I know that you don't know
       A          E
Where we go, when we go
Bm
I know that it's hard
    A              E
So we can't go alone


Bm
Look at your reflection
                   A
Casting your own image in the stream
Bm
And though it rolls right through you
                             A            E
Something of your soul remains within, within


Bm
And I know that you don't know
         A        E
Where we go, when we go
Bm
I know that it's hard
       A        E
So we can't go alone

Bm
I know that you never
     A        E
Let me go on my own
Bm                 A    E
And I know that I'll never make it alone
Tap to rate this tab
# A B C D E F G H I J K L M N O P Q R S T U V W X Y Z