Song name
# A B C D E F G H I J K L M N O P Q R S T U V W X Y Z

Misc Unsigned Bands - Atrishan - Murderous Hearts tab

e|66-9999---000000---|(X3)
B|77-7777---111111---| 
G|66-6666---000000---|
D|----------222222---|
A|-------------------|
E|-------------------|

e|000000---000000---000000---000000---|
B|000000---333333---000000---333333---|
G|111111---444444---222222---444444---|
D|222222---444444---333333---444444---|
A|222222---222222---333333---222222---|
E|000000------------111111------------|

...
(Harmonics)
e|12--------12--------12--------12-----|
B|--12--------12--------12--------12---|
G|-------------------------------------|
D|-------------------------------------|
A|-------------------------------------|
E|-------------------------------------|

e|00000000000000000000---|
B|00000000000000000000---|
G|99999999999999999999---|
D|99999999999999999999---|
A|77777777777777777777---|
E|00000000000000000000---|


(Distortion)
e|------------------------------------------------------------|(X2)
B|------------------------------------------------------------|
G|------------------------------------------------------------|
D|33333333333----22222222222----------------------------------|
A|33333333333----22222222222----------------------------------|
E|11111111111-2b-00000000000----------------------------------|
   pp p pp p      pp p pp p


e|----0000000----0----------------------------------|
B|----0000000----0----------------------------------|
G|----2222222----0-(Let it fade out)----------------|
D|33333333333----2----------------------------------|
A|33333333333----2----------------------------------|
E|11111111111-2b-0----------------------------------|
   pp p pp p 
Tap to rate this tab
 
# A B C D E F G H I J K L M N O P Q R S T U V W X Y Z