Song name
# A B C D E F G H I J K L M N O P Q R S T U V W X Y Z

Misc Unsigned Bands - We Are Odst - Lament - Philly Consigz tab

-------------------------------------------------------------------------------------------------|
-------------------------------------------------------------------------------------------------|
-------------------------------------------------------------------------------------------------|
-------------------------------------------------------------------------------------------------|
-------------------------------------------------------------------------------------------------|
--0--0---7----5--3--5---7----5--3--2---3---5----7-----3---2---0----------------------------------|


-----------------------------------0-------0----------0-------0----------------------------------|
-------------------------------------------------------------------------------------------------|
-------------------------------------------------------------------------------------------------|
-------------------------------------------------------------------------------------------------|
-------------------------------------------------------------------------------------------------|
--0--0---7----5--3--5---7----5--3--2---3---5----7-----3---2---0----------------------------------|

--0------0-------0------0----------0-------0----------0-------0----------------------------------|
-------------------------------------------------------------------------------------------------|
-------------------------------------------------------------------------------------------------|
-------------------------------------------------------------------------------------------------|
-------------------------------------------------------------------------------------------------|

x2


-------------------------------------------------------------------------------------------------|
-------------------------------------------------------------------------------------------------|
-------------------------------------------------------------------------------------------------|
-------------------------------------------------------------------------------------------------|
-------------------------------------------------------------------------------------------------|
--12--12---19---17---15----17---19--17---15----14---15---17---19----15----14---------------------|


-------------------------------------------------------------0-------0--------0------0-----------|
-------------------------------------------------------------------------------------------------|
-------------------------------------------------------------------------------------------------|
----0------0-----0------0-----------------------------------------------------------------0------|
--0------0-----0------0------0------0------0--------0----------0--------0-------0-------0--------|
0------0-----0------0------0---0--7---5--3----3--5-----3--5--2----3--5-----7--3---2---0----------|


--0------0------0-------0-----------0-------0--------0------0------------------------------------|
-------------------------------------------------------------------------------------------------|
-------------------------------------------------------------------------------------------------|
-------------------------------------------------------------------------------------------------|
----0------0------0--------0----------0--------0-------0-----------------------------------------|

x2


http://www.youtube.com/watch?v=4T_wrEjRfkw is the video of me playing the song


enjoy
Tap to rate this tab
# A B C D E F G H I J K L M N O P Q R S T U V W X Y Z