Song name
# A B C D E F G H I J K L M N O P Q R S T U V W X Y Z

Misc Unsigned Bands - So Jaded - A Night At The Fridge tab

this is the main melody throughout the whole song.
very simple, but a catchy riff.

E-------------------------------------------------|
B-------------------------------------------------|
G-------------------------------------------------|
D------------5---------------5---------------5----|
A---3--6--55-------3--6---55-------3--6--55-------|
E-------------------------------------------------|


Ending Riff this one only lasts maybe 15 seconds towards the end


E----------------------------------------------|
B----------------------------------------------|
G----------------------------------------------|
D---5-5--5-5--5-7-6-5--5-5--5-5--5-7-6-5-------|
A---3-3--3-3--3-5-4-3--3-3--3-3--3-5-4-3-------|
E----------------------------------------------|

nothin big but whoever views this i hope you enjoy it. the main riff (1st riff) is my favorite
Tap to rate this tab
# A B C D E F G H I J K L M N O P Q R S T U V W X Y Z