Song name
# A B C D E F G H I J K L M N O P Q R S T U V W X Y Z

Misc Unsigned Bands - The Kings Divide - Struggles tab

|-----------------------------------------------------------------------|
|-----------------------------------------------------------------------|
|-----------------------------------------------------------------------|
|-----------------------------------------------------------------------|
|-5-0-----0-00-0-00-0-0-00-x2--5-0------0-00-0-0-0-00--x6----5~--3~-----|
|-5-0-(3)-0-00-0-00-0-0-00-----5-0--3b--0-00-0-0-0-00--------5~--3~-----|

|------------------------------------------------------------------|
|------------------------------------------------------------------|
|------------------------------------------------------------------|
|-5--7--------------------------5--7-------------------------------|
|-3--5---5----------5-----------3--5--5--8--x4---------------------|
|--------5--3p0-3p0-5--3p0-3p0--------5--8-------------------------|

|------------------------------------------------------------|
|------------------------------------------------------------|
|---------------drum-fill------------------------------------|
|------------------------------------------------x4----------|
|-0----0-00-00-------------0----0-00-00-00-6-5-3-------------|
|-0-3b-0-00-00-------------0-3b-0-00-00-00-6-5-3-------------|

|-chorus--------------------------------------------------------|
|---------------------------------------------------------------|
|------------x4-------------------------------------------------|
|------5-7-5----------5-7------------5-5------------------------|
|-8-3--3-5-3------0~--3-5------------3-7--5-8--0~---------------|
|-8-3-------------0~-------5-3p0-3p0------5-8--0~---------------|

|--------------------------------------------------------------|
|----------------------------8b-6------------------------------|
|---------------------------------7-5-3-0----------------------|
|--------------------------------------------------------------|x4
|-0----0-00----5-------0-0---------------------------3-0-3-----|
|-0-3b-0-00-5b---6-5-3-0-0------------------3-5-3----3-0-3-----|

|-8-------8-------12----------------then-c----------------------------|
|---6---6---6---6----8---------------------h--------------------------|
|-----9-------9--------10--10-8--------------o------------------------|
|----------------------------------------------r----------------------|
|------------------------------------------------u--------------------|
|--------------------------------------------------s------------------|

|-end on ------------------------------------|
|--------------------------------------------|
|--------------------------------------------|
|--------------------------------------------|
|------------8--3--0~------------------------|
|------------8--3--0~------------------------|

| b bend
| h  hammer-on
| p  pull-off
| ~  let ring
| () pinch harmonic
| x   palm Mute
Tap to rate this tab
 
# A B C D E F G H I J K L M N O P Q R S T U V W X Y Z