Song name
# A B C D E F G H I J K L M N O P Q R S T U V W X Y Z

Misc Unsigned Bands - Dilemma Uncovered - Use tab

-------------------------------------------------------------------------------
			     USE - Dilemma Uncovered
-------------------------------------------------------------------------------
Tabbed by: Caleb Severn
Email: paradox_047@yahoo.com

Tuning: Standard (EADGBe)

  Intro/Pre-Verse riff
e|---------------------------------------------------------------------------|
B|---------------------------------------------------------------------------|
G|---------------------------------------------------------------------------|
D|-------5-----------------5---------------5--------------5------4-----------| x  4
A|----7-----------------5---------------3--------------5-------5-------------|
E|---------------------------------------------------------------------------|

  Verse Riff                                             Play Pre-Chorus here 2nd time
e|-----------------------------------------------------------|---------------|
B|-----------------------------------------------------------|---------------|
G|-----------------------------------------------------------|---------------|
D|----------5--------5----------5-------5---------5------5---|------5------4-| x  2
A|-----7-7------7-7--------5-5-----5-5-------3-3-----3-3-----|--5-5----5-5---|
E|-----------------------------------------------------------|---------------|

  Pre-Chorus
e|-------------------------------------------|
B|-------------------------------------------|
G|--------------5-5-5-5-7-7-7-7--------------|
D|--------------5-5-5-5-7-7-7-7--------------|
A|--------------3-3-3-3-5-5-5-5--------------|
E|-------------------------------------------| 

  Chorus
e|------------------------------------------------------------------------|
B|------------------------------------------------------------------------|
G|-----9-9-9-9-9-9-9-9-7-7-7-7-7-7-7-7-5-5-5-5-5-5-5-5-7-7-7-7-4-4-4-4----|
D|-----9-9-9-9-9-9-9-9-7-7-7-7-7-7-7-7-5-5-5-5-5-5-5-5-7-7-7-7-4-4-4-4----| x  2
A|-----7-7-7-7-7-7-7-7-5-5-5-5-5-5-5-5-3-3-3-3-3-3-3-3-5-5-5-5-2-2-2-2----|
E|------------------------------------------------------------------------|

  Intro/Pre-Verse riff
e|---------------------------------------------------------------------------|
B|---------------------------------------------------------------------------|
G|---------------------------------------------------------------------------|
D|-------5-----------------5---------------5--------------5------4-----------| x  2
A|----7-----------------5---------------3--------------5-------5-------------|
E|---------------------------------------------------------------------------|

  Verse Riff                                             Play Pre-Chorus here 2nd time
e|-----------------------------------------------------------|----------------|
B|-----------------------------------------------------------|----------------|
G|-----------------------------------------------------------|----------------|
D|----------5--------5----------5-------5---------5------5---|------5------4--| x  2
A|-----7-7------7-7--------5-5-----5-5-------3-3-----3-3-----|--5-5----5-5----|
E|-----------------------------------------------------------|----------------|

  Pre-Chorus
e|-------------------------------------------|
B|-------------------------------------------|
G|--------------5-5-5-5-7-7-7-7--------------|
D|--------------5-5-5-5-7-7-7-7--------------|
A|--------------3-3-3-3-5-5-5-5--------------|
E|-------------------------------------------| 

  Chorus
e|---------------------------------------------------------------------------|
B|---------------------------------------------------------------------------|
G|---9-9-9-9-9-9-9-9-7-7-7-7-7-7-7-7-5-5-5-5-5-5-5-5-7-7-7-7-4-4-4-4---------|
D|---9-9-9-9-9-9-9-9-7-7-7-7-7-7-7-7-5-5-5-5-5-5-5-5-7-7-7-7-4-4-4-4---------| x  2
A|---7-7-7-7-7-7-7-7-5-5-5-5-5-5-5-5-3-3-3-3-3-3-3-3-5-5-5-5-2-2-2-2---------|
E|---------------------------------------------------------------------------|

  Guitar Solo (played over Chorus chords)
e|----------------------------------------------7----------------------------|
B|--------------5----5-5-5----7---8---7-----5-5---5--------------------------|
G|---------------------------------------------------------------------------|
D|---------------------------------------------------------------------------| x 8
A|---------------------------------------------------------------------------|
E|---------------------------------------------------------------------------|

  Chorus
e|---------------------------------------------------------------------------|
B|---------------------------------------------------------------------------|
G|---9-9-9-9-9-9-9-9-7-7-7-7-7-7-7-7-5-5-5-5-5-5-5-5-7-7-7-7-4-4-4-4---------|
D|---9-9-9-9-9-9-9-9-7-7-7-7-7-7-7-7-5-5-5-5-5-5-5-5-7-7-7-7-4-4-4-4---------| x  4
A|---7-7-7-7-7-7-7-7-5-5-5-5-5-5-5-5-3-3-3-3-3-3-3-3-5-5-5-5-2-2-2-2---------|
E|---------------------------------------------------------------------------|



| /  slide up
| \  slide down
| h  hammer-on
| p  pull-off
| ~  vibrato
| +  harmonic
| x  Mute note
===============================================================================
Tap to rate this tab
# A B C D E F G H I J K L M N O P Q R S T U V W X Y Z