Song name
# A B C D E F G H I J K L M N O P Q R S T U V W X Y Z

Misc Unsigned Bands - Legacy Drive - Blind In Peace tab

                           Legacy Drive
                          Blind In Peace
                               2009
Jordan Speers-Rhythm Guitar
Sam Frank-Bass Guitar

Acoustic
Standard Tuning E A D G B e

E7---7---0---0---10---10-------------------------------------------|
A-9-9-9-9-9-9-9-9--9-9--9-9-7---7---0---0---10---10---0-----0------|
D--0---0---0---0----0----0---9-9-9-9-9-9-9-9--9-9--9-9-10-10-10-10-|
G-----------------------------0---0---0---0----0----0----0-----0---|
B------------------------------------------------------------------|
e------------------------------------------------------------------|

E8-----8-----0-----0-----11-----11-------------------------------|
A-10-10-10-10-10-10-10-10--10-10--10-10-8-----8-----0-----0------|
D---0-----0-----0------------0------0----10-10-10-10-10-10-10-10-|
G------------------------------------------0-----0-----0-----0---|
B----------------------------------------------------------------|
e----------------------------------------------------------------|

E----------------------7-10--7-|
A11-----11-----0---0-------9-9-|
D--10-10--10-10-9-9-9-9--------|
G----0------0----0---0---------|
B------------------------------|
e------------------------------|

E---------------------------------------------------|
A---------------------------------------------------|
D-----------------------10--10--10-0--0--0-9--9--9--|
G9--9--9-0--0--0-7-7--7-----------------------------|
B-8--8----8--8----8-8-----8---8-----8--8----8--8----|
e--7--7-7--7--7-7--7-7-7---7---7--7--7--7-7--7--7-7-|

E-----------------------------------------------|
A-----------------------------------------------|
D----------------------8--8--8-0--0--0-7--7--7--|
G7-7--7-0-0--0-5--5--5--------------------------|
B-6-6----6-6----6--6----6--6----6--6----6--6----|
e--5-5-5--5-5-5--5--5-5--5--5-5--5--5-5--5--5-5-|

E--------------------------------------------------------|
A--------------------------------------------------------|
D0----0---10---10----9----9---0----0---8---8---7----7----|
G-9-----9----------0--7-----7--7-----7-------0--5-----5--|
B--8---8----8-----8----8---8----6---6---6---6----6---6---|
e---7-7--7---7--7---7---7-7--7---5-5--5--5-5--5---5-5--5-|

E---------------------------------------------------|
A---------------------------------------------------|
D-----------------------10--10--10-0--0--0-9--9--9--|
G9--9--9-0--0--0-7-7--7-----------------------------|
B-8--8----8--8----8-8-----8---8-----8--8----8--8----|
e--7--7-7--7--7-7--7-7-7---7---7--7--7--7-7--7--7-7-|

E-----------------------------------------------|
A-----------------------------------------------|
D----------------------8--8--8-0--0--0-7--7--7--|
G7-7--7-0-0--0-5--5--5--------------------------|
B-6-6----6-6----6--6----6--6----6--6----6--6----|
e--5-5-5--5-5-5--5--5-5--5--5-5--5--5-5--5--5-5-|

E7---7---0---0---10---10-------------------------------------------|
A-9-9-9-9-9-9-9-9--9-9--9-9-7---7---0---0---10---10---0-----0------|
D--0---0---0---0----0----0---9-9-9-9-9-9-9-9--9-9--9-9-10-10-10-10-|
G-----------------------------0---0---0---0----0----0----0-----0---|
B------------------------------------------------------------------|
e------------------------------------------------------------------|

E8-----8-----0-----0-----11-----11-------------------------------|
A-10-10-10-10-10-10-10-10--10-10--10-10-8-----8-----0-----0------|
D---0-----0-----0------------0------0----10-10-10-10-10-10-10-10-|
G------------------------------------------0-----0-----0-----0---|
B----------------------------------------------------------------|
e----------------------------------------------------------------|

E-----------------------|
A11-----11-----0---0----|
D--10-10--10-10-9-9-9-9-|
G----0------0----0---0--|
B-----------------------|
e-----------------------|

E7---7---0---0---10---10----|
A-9-9-9-9-9-9-9-9--9-9--9-9-|
D--0---0---0---0----0----0--|
G---------------------------|
B---------------------------|
e---------------------------|

E7---7---7-|
A-9-9-9-9--|
D--0---0---|
G----------|
B----------|
e----------|
Tap to rate this tab
 
# A B C D E F G H I J K L M N O P Q R S T U V W X Y Z