Song name
# A B C D E F G H I J K L M N O P Q R S T U V W X Y Z

Misc Unsigned Bands - Brian Puleo - Dark Medley tab

The first guitar is an acoustic guitar that plays this riff while the electric guitar plays along.
e-----------------------------------------------------------------------|
B-----------------------------------------------------------------------|
G--0---0---2---2---1---1--0---0-----------------------------------------|
D----0-------0-------0------0----X2-------------------------------------|
A-----------------------------------------------------------------------|
D--5-------3-------2------1---------------------------------------------|

e---------------------------------------------------------------------------|
B---------------------------------------------------------------------------|
G--3---3---2---2----5---5---3---3---3---3---2---2--0---0--2---2-------------|
D----0-------0--------0-------0-------0-------0------0------0---------------|
A---------------------------------------------------------------------------|
D--5-------3--------7-------5-------5-------3------1------0-----------------|
Tap to rate this tab
# A B C D E F G H I J K L M N O P Q R S T U V W X Y Z