Song name
# A B C D E F G H I J K L M N O P Q R S T U V W X Y Z

Misc Unsigned Bands - Aeveron - The Embodiment Of All Misery tab

Aeveron
Existential Dead End EP
Embodiment of All Misery

Tuning: Drop D

Aeveron kicks ass from here to Indochina. Unless here for you 
happens to be Indochina, in which case they kick ass from here to Kansas. 

Please rate and comment. This is a really complex song that took me 
forever to tab out; let me know if you spot any mistakes. 

Intro:
|--------------------------------------------------|
|--------------------------------------------------|
|--------------------------------------------------|
|----777---777---777777555---------555888777555----|
|-555---555---555---------555777888------------888-|
|--------------------------------------------------| x2


|--------------------------------------------------------|
|--------------------------------------------------------|
|--------------------------------------------------------|
|----101010---101010---777---777888777555------333---555-|
|-888------888------777---777------------888555---777----|
|--------------------------------------------------------| x2
  RAAAAAAAAAAAAAAAAAAAAAAAAAAAAAAAAAAAAAAAAAAAAAAAAAAAAA
  AAAAAAAAAAAAAAAAAAAAAAAAAAAAAAAAAAAAAAAAAAAIIIIIIIIII!

|--------------------------------------------------|
|--------------------------------------------------|
|--------------------------------------------------|
|----777---777---777777555---------555888777555----|
|-555---555---555---------555777888------------888-|
|--------------------------------------------------| 

|-------------------------------------------------|
|-------------------------------------------------|
|-------------------------------------------------|
|----777---777---777777555---------555888777------|
|-555---555---555---------555777888----------33---|
|--------------------------------------------33---| 
                                   Deep deep deepů
Riff 2:
|------------------------------------------------------------------|
|------------------------------------------------------------------|
|-----7-7-----7-7--------------------------------------------------|   
|-----7-7-----7-7-----3-3-----7--7-----0-0-----0-0-----3-3-----7-7-|    
|-----5-5-----5-5-----3-3-----7--7-----0-0-----0-0-----3-3-----7-7-|    
|-000-----000-----000-3-3-000-7--7-000-0-0-000-0-0-000-3-3-000-7-7-| 
  ***     ***     ***     ***      ***     ***     ***     ***
|--------------------------------------------------------|
|--------------------------------------------------------|
|-----7-7-----7-7----------------------------------------|    
|-----7-7-----7-7-----3-3-----7-7-----8~~~~~~~~~/10~~~-3-|    
|-----5-5-----5-5-----3-3-----7-7-----8~~~~~~~~~/10~~~-3-|    
|-000-----000-----000-3-3-000-7-7-000-8~~~~~~~~~/10~~~-3-| 
  ***     ***     ***     ***     ***                     
x3

Bridge:
|--------------------------------------------------|
|--------------------------------------------------|
|--------------------------------------------------|
|--------------------------------------------------|
|-3-33332-22223-33330-00005-55553-33332-222--------|
|-3-33332-22223-33330-00005-55553-33332-2220000000-|
  * ***** ***** ***** ***** ***** ***** *** 

Chorus:
|-------------------------------------------------|
|-------------------------------------------------|
|-------------------------------------------------|
|-0~~~~-3~~~~-8~~~~-3~~~~-5~~~~-3~~~~-2~~~~-0~~~~-|
|-0~~~~-3~~~~-8~~~~-3~~~~-5~~~~-3~~~~-2~~~~-0~~~~-|
|-0~~~~-3~~~~-8~~~~-3~~~~-5~~~~-3~~~~-2~~~~-0~~~~-| x2

Bass interlude

Then:

|--------------------|
|--------------------|
|--------------------|
|-8~~~~~~~/10~~~~~-3-|
|-8~~~~~~~/10~~~~~-3-|
|-8~~~~~~~/10~~~~~-3-|

Play riff 2 once, then twice behind the solo. 

Solo (Not 100% sure about this)

|----------------------------------------------------------------------|
|----------------------------------------------------------------------|
|-----------14p12p10-14p12p10------------------------------------------|
|-/12~~~~~~-------------------14p12p10-14p12p10-14p12p10-12p10p8/12~~~-|
|----------------------------------------------------------------------|
|----------------------------------------------------------------------|

|----------------------------------------------------16-14-12----------|
|-------------------------------------------14-16-18----------18-16-14-|
|-12----12-14----14-15br----17~-17-13-15-17----------------------------|
|----12-------14---------15--------------------------------------------|
|----------------------------------------------------------------------|
|----------------------------------------------------------------------|

|----------------------------------------------------------------------|
|-17-15-13----------18---17---18p17--------18--------------------------|
|----------17-15-13-------------------19--------19---17----------------|
|---------------------------------------------------------19-----------|
|----------------------------------------------------------------------|
|----------------------------------------------------------------------|

|----------------------------------------------------------------|
|----------------------------------------------------------------|
|----------------------------------------------------------------|
|------7-8-7-5-7------7-10-8-7-8------7-8-7-5---5---5--7-8-7-5---|
|-5~~~-----------5~~~------------5~~~---------8---8--8---------8-|
|----------------------------------------------------------------|

Breakdown:
|-----------------------------------------------|
|-----------------------------------------------|
|-----------------------------------------------|
|----------------------------------12\-----9/10-|
|-0-0000-0000-00033333330-0000-000-10\-000-7/8--|
|-0-0000-0000-00033333330-0000-000-----000------| x4
  * **** **** *********** **** ***     ***
|---------------------------------------------------|
|---------------------------------------------------|
|---------------------------------------------------|
|--------------------------------------12\-----9/10-|
|-0-00000-00000-00033333330-00000-0000-10\-000-7/8--|
|-0-00000-00000-00033333330-00000-0000-----000------| x3
  * ***** ***** *********** ***** ****     ***

That Other Riff 
|--------------------------------------|
|--------------------------------------|
|--------------------------------------|
|-10\9--------------12\10--------------|
|-10\9--------------12\10--------------|
|-10\9-0-0-0-0-0000-12\10-0-0-0-0-0000-| x3
       * * * * ****       * * * * ****
|--------------------------------------|
|--------------------------------------|
|--------------------------------------|
|-10\9--------------12\10--10--10--10--|
|-10\9--------------12\10--10--10--10--|
|-10\9-0-0-0-0-0000-12\10--10--10--10--|
       * * * * ****       
x2

Bridge 2:
|-----------------------------------------------------------------|
|-----------------------------------------------------------------|
|-----------------------------------------------------------------|
|-----------------------------------------------------------------|
|-3-3-3-3-2-2-2-2-3-3-3-3-0-0-0-0-5-5-5-5-2-2-2-2-0-0-0-0-0-0-0-0-|
|-3-3-3-3-2-2-2-2-3-3-3-3-0-0-0-0-5-5-5-5-2-2-2-2-0-0-0-0-0-0-0-0-|
  * * * * * * * * * * * * * * * * * * * * * * * * * * * * * * * *

Chorus

Mini-solo:
|----------------------------------------------------------------------|
|----------------------------------------------------------------------|
|----------------------------------------------------------------------|
|-/12~-10h12p10~-7~-8-8~-8h10-7~-8-8~-7~\3-5-5-3\2-0-------------------|
|----------------------------------------------------------------------|
|----------------------------------------------------------------------|

|--------------------------------------------------|
|--------------------------------------------------|
|--------------------------------------------------|
|----777---777---777777555---------555888777555----|
|-555---555---555---------555777888------------888-|
|--------------------------------------------------| 

|-------------------------------------------------|
|-------------------------------------------------|
|-------------------------------------------------|
|----777---777---777777555---------555888777------|
|-555---555---555---------555777888----------33---|
|--------------------------------------------33---| 

Riff 2.5:
|-------------------------------------------------------------------|
|-------------------------------------------------------------------|
|-7-7-----7-7-----9-9-----9-9-----5-5-----5-5-----------------------|   
|-7-7-----7-7-----9-9-----9-9-----5-5-----5-5-----8-8-----10-10-----|    
|-5-5-----5-5-----7-7-----7-7-----3-3-----3-3-----8-8-----10-10-----|    
|-----000-----000-----000-----000-----000-----000-8-8-000-10-10-000-| 
      ***     ***     ***     ***     ***     ***     ***       ***
|---------------------------------------------------------------------|
|---------------------------------------------------------------------|
|---------------------------------5-5-----5-5-----10-10-----12-12-----|    
|-3-3-----3-3-----7-7-----7-7-----5-5-----5-5-----10-10-----12-12-----|    
|-3-3-----3-3-----7-7-----7-7-----3-3-----3-3-----8--8------10-12-----|    
|-3-3-000-3-3-000-7-7-000-7-7-000-----000-----000-8--8--000-10-10-000-| 
      ***     ***     ***     ***     ***     ***       ***       ***
|-------------------------------------------------------------------|
|-------------------------------------------------------------------|
|-7-7-----7-7-----9-9-----9-9-----5-5-----5-5-----------------------|   
|-7-7-----7-7-----9-9-----9-9-----5-5-----5-5-----8-8-----10-10-----|    
|-5-5-----5-5-----7-7-----7-7-----3-3-----3-3-----8-8-----10-10-----|    
|-----000-----000-----000-----000-----000-----000-8-8-000-10-10-000-| 
      ***     ***     ***     ***     ***     ***     ***       ***
|-------------------------------------------------------------|
|-------------------------------------------------------------|
|---------------------------------5-5-----5-5-----------------|    
|-3-3-----3-3-----7-7-----7-7-----5-5-----5-5-----3--3--2--2--|    
|-3-3-----3-3-----7-7-----7-7-----3-3-----3-3-----3--3--2--2--|    
|-3-3-000-3-3-000-7-7-000-7-7-000-----000-----000-3--3--2--2--| 
      ***     ***     ***     ***     ***     *** *  *  *  *

|--------------------------------------|
|--------------------------------------|
|--------------------------------------|
|-10\9--------------12\10--------------|
|-10\9--------------12\10--------------|
|-10\9-0-0-0-0-0000-12\10-0-0-0-0-0000-| 
       * * * * ****       * * * * ****
|--------------------------------------|
|--------------------------------------|
|--------------------------------------|
|-10\9--------------12\10--10--10--10--|
|-10\9--------------12\10--10--10--10--|
|-10\9-0-0-0-0-0000-12\10--10--10--10--|
       * * * * ****   

|--------------------------------------|
|--------------------------------------|
|--------------------------------------|
|-10\9--------------12\10--------------|
|-10\9--------------12\10--------------|
|-10\9-0-0-0-0-0000-12\10-0-0-0-0-0000-| x3
       * * * * ****       * * * * ****
|--------------------------------------|
|--------------------------------------|
|--------------------------------------|
|-10\9--------------12\10--10--10--10--|
|-10\9--------------12\10--10--10--10--|
|-10\9-0-0-0-0-0000-12\10--10--10--10--|
       * * * * ****       
|--------------------------------------|
|--------------------------------------|
|--------------------------------------|
|-10\9--------------12\10--------------|
|-10\9--------------12\10--------------|
|-10\9-0-0-0-0-0000-12\10-0-0-0-0-0000-| x2
       * * * * ****       * * * * ****
Outro:
|-----------------------------------------|
|-----------------------------------------|
|-----------------------------------------|
|-0000-0000-1111-1111-3333-3333-1111-0~~~-|
|-0000-0000-1111-1111-3333-3333-1111-0~~~-|
|-----------------------------------------| x2
  **** **** **** **** **** **** **** 

|--------------------------------------|
|--------------------------------------|
|--------------------------------------|
|-10\9--------------12\10--------------|
|-10\9--------------12\10--------------|
|-10\9-0-0-0-0-0000-12\10-0-0-0-0-0000-| x2
       * * * * ****       * * * * ****
|-----------------------------------------|
|-----------------------------------------|
|-----------------------------------------|
|-0000-0000-1111-1111-3333-3333-1111-0~~~-|
|-0000-0000-1111-1111-3333-3333-1111-0~~~-|
|-----------------------------------------| x3
  **** **** **** **** **** **** **** 

|----------------------------------------------|
|----------------------------------------------|
|----------------------------------------------|
|-0000-0000-1111-1111-3333-3333-1111-0~~~~-1-0-|
|-0000-0000-1111-1111-3333-3333-1111-0~~~~-1-0-|
|----------------------------------------------|
  **** **** **** **** **** **** **** 

Tablature legend:
/ = Slide up
\ = Slide down
* = Palm mute
b = Bend
r = Release bend
h = Hammeron
p = Pulloff
~ = Let ring

Tap to rate this tab
# A B C D E F G H I J K L M N O P Q R S T U V W X Y Z