Song name
# A B C D E F G H I J K L M N O P Q R S T U V W X Y Z

Misc Unsigned Bands - Red Ink - Audrey tab

Hi everyone,
i noticed that no one had posted a tab of this wonderful song so i decided to tab it and share!!
BTW this is my first tab so please let me know what you think!!


Intro
E[---6----6----6----6----6----6----6----6--------------------]
B[---6----6----6----6----6----6----6----6--------------------]
G[-----------------------------------------------------------]
D[-----------------------------------------------------------]
A[-----------------------------------------------------------]
E[-----------------------------------------------------------]

Verse
E[---6----6----6----6----6----6----6----6--------------------]
B[---6----6----6----6----6----6----6----6--------------------]
G[-----------------------------------------------------------]
D[-----------------------------------------------------------]
A[-----------------------------------------------------------]
E[-----------------------------------------------------------]


Chorus
E[----------------------------------------------------------]
B[--------------------------------------------6---3---------]
G[------------------------------------------0---0-----------]
D[----------------------------------------------------------]
A[-10-10-10-10----------10-10-10-10-------------------------]
E[----------------------------------------------------------]


Chorus Continued
E[----------------------------------------------------------]
B[----------------------------------------------------------]
G[----------------------------------------------------------]
D[----------------------------------------------------------]
A[-10-10-10-10----------10-10-10-10-------------------------]
E[----------------------------------------------------------]


Chorus Continued 2
E[----------------------------------------------------------]
B[----------------------------------------------------------]
G[-12-12-12---10----10-10-10-----5-5-5-5-5-5-5-5-5-5--------]
D[-12-12-12---10----10-10-10-----5-5-5-5-5-5-5-5-5-5--------]
A[-10-10-10----8-----8--8--8-----3-3-3-3-3-3-3-3-3-3--------]
E[----------------------------------------------------------]


solo
E[-------------------------------------------------------------]
B[-15-15-15----------15-15-15----------------------------------]
G[-----------12-12-------------10-10---------------------------]
D[-------------------------------------------------------------]
A[-------------------------------------------------------------]
E[-------------------------------------------------------------]


Intro
Verse x2
Chorus
Chorus Continued
Chorus Continued 2
Verse x2
Chorus
Chorus Continued
Chorus Continued 2
Solo
Verse
Chorus
Chorus Continued
Chorus Continued 2
Tap to rate this tab
 
# A B C D E F G H I J K L M N O P Q R S T U V W X Y Z