Song name
# A B C D E F G H I J K L M N O P Q R S T U V W X Y Z

Misc Unsigned Bands - Breakthrough - Rock N Roll Revolution tab

INTRO:
----------------------------------------------------------------------------|
----------------------------------------------------------------------------|
-----------5~---------------------------------------------------------------|
--3-3-3-55-3~-3-3-3-5~-5~-3-3-3-5~-5~-3-3-0~--------------------------------|
-0-0-0-0-----0-0-0-0---5~0-0-0-0---5~0-0-0----------------------------------|

----------------------------------------------------------------------------|
----------------------------------------------------------------------------|
-----------5~---------------------------------------------------------------|
--3-3-3-55-3~-3-3-3-5~-5~-3-3-3-5~-5~-3-3-0~--------------------------------|
-0-0-0-0-----0-0-0-0---5~0-0-0-0---5~0-0-0----------------------------------|

Fill 1:                  CHORUS:
---------      -------------------------------------|
---------      -------------------------------------|
---------      -------------------------------------|   (x2)
---------      -------------------------------------|
-3~4~5~6~      -333333333333336~-111111111111116~---|
-3~4~5~6~      -333333333333336~-111111111111116~---|

Fill 2:                  VERSE:
---------      -------------------------------------|
---------      -------------------------------------|
---------      -------------------------------------|    (x3)
---------      -------------------------------------|
-6~5~4~3~      -3--1--1-3--1--1-5--3--3-5--3--------|
-6~5~4~3~      -300100103001001050030030500300------|

Fill 3:
--------|
--------|
--------|
--------|
--3~~~~-
--3~~~~-

chorus,

fill 1,

verse,

fill 2,

Solo: Rhythm during solo (solo not tabbed yet)

chorus,

fill 1,

verse,

fill 2,

PRE CHORUS:
----------------------------|
----------------------------|
----------------------------|    (x4)
----------------------------|
-55h65-55h65~--77h87-77h87~-|
-55h65-55h65~--77h87-77h87~-|


Fill 1,

CHORUS (x2)

OUTRO:
---------------------------|
---------------------------|
---------------------------|
---------------------------|
--6~~~-5~~~-4~~~-3~~~------|
--6~~~-5~~~-4~~~-3~~~------|
Tap to rate this tab
# A B C D E F G H I J K L M N O P Q R S T U V W X Y Z