Song name
# A B C D E F G H I J K L M N O P Q R S T U V W X Y Z

Misc Unsigned Bands - Trp - Alpha tab

                    |     *KEY*     |
                    |(h#) = Hammer  |
                    |(p#) = Pull Off|
                    |   / = Slide   |
                    |_______________|



e|--------------------------------------------------------|
b|--------------------------------------------------------|
g|-----------0--------------------------------------------|
d|---------2---2----------2-----------------------2-0-(h2)|
a|-----(h3)----------(h3)---3/2--2-2---------(h3)---------|
E|-0-0-------------0-0-----------------0-0-0--------------|


e|---------------------------------------------------------------|
b|-------------------------------(h1)--1-1-0----------------0----|
g|--------0-----------5-(h2)-----------------0----0-(h2)-2----0--|
d|------2---------(h2)-------2-----------------0----------------0|
a|-(h3)-------0-0------------------------------------------------|
E|-0-------------------------------------------------------------|
Tap to rate this tab
# A B C D E F G H I J K L M N O P Q R S T U V W X Y Z