Song name
# A B C D E F G H I J K L M N O P Q R S T U V W X Y Z

Misc Unsigned Bands - The Inbreds - Never Be The Same tab

-------------------------------------------------------------------------------
                         NEVER BE THE SAME - The Inbreds
-------------------------------------------------------------------------------
Tabbed by: Pat Malavi
pat.malavi@gmail.com

Tuning: Standard
Capo: 1st fret

A   See Guitar 2 below
A1  557XXX
A2  576XXX
A3  554XXX
F#  2443XX
E   0221XX

(12) = Harmonic on 12th fret

Intro:

Guitar 1
e|--------------------------------------------------------------------------|
B|--------------------------------------------------------------------------|
G|----------14------------14------------14------------14--------------------|
D|-------14----14------14----14------14----14------14----14-----------------|
A|--(12)----------(12)----------(12)----------(12)--------------------------|
E|--------------------------------------------------------------------------|

Guitar 2 (alternate between Asus2 and A)
e|--------------------------------------------------------------------------|
B|--0-h2-2----2-p0-0--------------------------------------------------------|
G|--2----2----2----2--------------------------------------------------------|
D|--2----2----2----2--------------------------------------------------------|
A|--0----0----0----0--------------------------------------------------------|
E|--------------------------------------------------------------------------|


        A
I wanna lose this tension that we've been building

Cos being alone has only left me with empty feelings
           A1    A2      A1   A 
But I will never be that way again


              A
If I tried to be all of the things you wanted

It wouldn't be me and that's something I could never live with
           A1    A2      A1   A 
But I will never be that way again
          A1    A2      A3   A
No I will never be that way again


A3           A2              A1                F#
I'm not very proud to be the one that puts you down
A3              A2               E
You may have my word there is no next time


                 A
The best I could do was the least of what we did together

I know that it's true so come on now let's get it started
           A1    A2      A1   A 
And I will never be this way again
          A1    A2      A3   A
No I will never be this way again
          A1    A2      A1   A
No I will never be this way again
          A1    A2      A3   A
No I will never be this way again
Tap to rate this tab
# A B C D E F G H I J K L M N O P Q R S T U V W X Y Z