Song name
# A B C D E F G H I J K L M N O P Q R S T U V W X Y Z

Misc Unsigned Bands - Mohammed Raffi - Chand Mera Dil tab

          ====================================
             Chand Mera Dil - Mohammed Raffi
          ====================================

---------0----------------------------0--------------------|
-----------1-0--------------------------1-0----------------|
-----0-2-------0-2-0--------------0-2-------0-2-0----------|
-0-2-----------------2-0------0-2-----------------2-0------|
-------------------------3-0--------------------------3-0--|
-----------------------------------------------------------|

Am         Dm
chand mera dil
G          C
chandni ho tum
C            F
chand se hai door
F         Am
chandni kahan
Am        Dm
laut ke aana
G           C
hai yehi tumko
C          F
ja rahe ho tum
F        Am
jao meri jaan

---------0----------------------------0--------------------|
-----------1-0--------------------------1-0----------------|
-----0-2-------0-2-0--------------0-2-------0-2-0----------|
-0-2-----------------2-0------0-2-----------------2-0------|
-------------------------3-0--------------------------3-0--|
-----------------------------------------------------------|

G            Am
Vaise to hum kadam
F           Am
milenge log sanam
Am      C         G
milega sacha pyar mushkil se
G      Am
dil ki dosti
F         Am
khel nahi koi
Am              C         G
dil se dil hai milna yaar mushkil se
G
yehi to hai sanam
G          C
pyar ka thikana
G                   Am
main hoon main hoon main hoon

Am           Dm
chand mera dil
G          C
chandni ho tum
C            F
chand se hai door
F         Am
chandni kahan
Am        Dm
laut ke aana
G           C
hai yehi tumko
C          F
ja rahe ho tum
F        Am
jao meri jaan
F        Am
jao meri jaan
F        Am
jao meri

Tab by Shakti.  Feel free for any suggestion or correction.
You can comment on the tab or e-mail at:
shakti_102@yahoo.co.uk
Tap to rate this tab
 
# A B C D E F G H I J K L M N O P Q R S T U V W X Y Z