Song name
# A B C D E F G H I J K L M N O P Q R S T U V W X Y Z

Misc Unsigned Bands - And Hell Followed With - Serpents Beneath Their Hoods tab

Band:  And Hell Followed With
Song:  Serpents Beneath Their Hoods
Album: Domain

Tuning: Drop A [A,E,A,D,F#,B]

Intro A x8

B |-------------------------------------------|
F#|-------------------------------------------|
D |-------------------------------------------|
A |-------------------------------------------|
E |----------------------------------------12-|
A |-12-8-11-7-12-8-11-7-12-8-11-7-12-14-15----|

B |-----------------------------------------|
F#|-----------------------------------------|
D |-----------------------------------------|
A |-----------------------------------------|
E |-------------------------------12-10-8-7-|
A |-12-8-11-7-12-8-11-7-12-8-11-7-----------|

Intro B x8

B |------------------------------|
F#|------------------------------|
D |------------------------------|
A |------------------------------|
E |-00-----000000-00---000000-00-|
A |-00-----000000-00---000000-00-|
PM  ..     ...... ..   ...... ..

(Rhythm keeps playing Intro B)

Intro C

B |------|   |------|  |------|   |-----|   |------|  |-----|   |
F#|------|   |------|  |------|   |-----|   |------|  |-----|   |
D |------|   |------|  |------|   |-----|   |------|  |-----|   |
A |------|   |------|  |------|   |-----|   |------|  |-----|   |
E |12p8p7|x12|13p8p7|x4|10p7p5|x16|7p5p4|x12|10p5p4|x4|8p7p5|x16|
A |------|   |------|  |------|   |-----|   |------|  |-----|   |

Verse 1

(Haven't got this part)

Pre-Chorus

B |--------------------|
F#|--------------------|
D |--------------------|
A |--------------------|
E |-12-10-8-7-10-8-7-5-|
A |--------------------|

Chorus x4

B |------------------------------|
F#|------------------------------|
D |------------------------------|
A |------------------------------|
E |------77-8-----------10/13\12-|
A |-8888-------10101010----------|

B |------------------------|
F#|------------------------|
D |------------------------|
A |------------------------|
E |------------------------|
A |-0-15-11-14-12-14-15-14-|

Bridge A

[GUITAR ONE]

B |---------------------|
F#|---------------------|
D |---------------------|
A |-0~~~~~~~~~~~~~~~~~~-| x2
E |-0~~~~~~~~~~~~~~~~~~-|
A |-0~~~~~~~~~~~~~~~~~~-|

[GUITAR TWO]

Bridge B

B |---------------------------|
F#|---------------------------|
D |---------------------------|
A |---------------------------|
E |-88888888-1010101010101010-|
A |-88888888-1010101010101010-|
PM  ........ . . . . . . . .

Bridge C

B |----------------------|
F#|----------------------|
D |----------------------|
A |----------------------|x4
E |----------------------|
A |-0------00-0----00-00-|

Bridge D

B |----------------------|
F#|----------------------|
D |----------------------|
A |----------------------|x4
E |-0~~~~~~~-00----00-00-|
A |-0~~~~~~~-00----00-00-|
PM           ..    .. ..

Outro A x4

B |-------------------------------------------|
F#|-------------------------------------------|
D |-------------------------------------------|
A |-------------------------------------------|
E |----------------------------------------12-|
A |-12-8-11-7-12-8-11-7-12-8-11-7-12-14-15----|

B |-----------------------------------------|
F#|-----------------------------------------|
D |-----------------------------------------|
A |-----------------------------------------|
E |-------------------------------12-10-8-7-|
A |-12-8-11-7-12-8-11-7-12-8-11-7-----------|

Outro B x8

B |------------------------------|
F#|------------------------------|
D |------------------------------|
A |------------------------------|
E |-00-----000000-00---000000-00-|
A |-00-----000000-00---000000-00-|
PM  ..     ...... ..   ...... ..

They're not actually unsigned, they're signed to Earache Records but since the site 
a link to their OFFICIAL site, it's not really proof to send them a MySpace. So I didn't 
bother.
Tap to rate this tab
 
# A B C D E F G H I J K L M N O P Q R S T U V W X Y Z