Song name
# A B C D E F G H I J K L M N O P Q R S T U V W X Y Z

Misc Unsigned Bands - Burning Chapel - Seraph tab

E----------7---9--------------7---9------------|
B--3---5----6---8-----3---5----6---8-----------|
G---2---4--------------2---4-------------------|
D----------------------------------------------|
A----2---4---5---7------2---4---5---7----------|
E----------------------------------------------|

E----------7---9--------------7---9------------|
B--3---5----6---8-----3---5----6---8-----------|
G---2---4--------------2---4-------------------|
D----------------------------------------------|
A----2---4---5---7------2---4---5---7----------|
E----------------------------------------------|
repeat throughout
E--------6--------4---------6---------4--------|
B-------4-4------2-2-------4-4-------2-2-------|
G----5-5------3-3-------5-5-------3-3----------|
D----------------------------------------------|
A---3-3------1-1-------3-3-------1-1-----------|
E--0--------0---------0---------0--------------|
heavy palm muting (in time with above) x2 with above in total
E----------------------------------------------|
B----------------------------------------------|
G---------5------------3-----------------------|
D----5-5-7-7------3-3-5-5----------------------|
A-5-7-7--------3-5-5---------------------------|
E----------------------------------------------|
solo #1
E------------------------------------------------------|
B--------------------5h6h7-7^-/(11)~-11911-------------|
G---------------5h6h7----------------------------------|
D----------7~~~----------------------------------------|
A-/9~~~-979--------------------------------------------|
E------------------------------------------------------|

solo #1 cont.
E-9^~~-------------------------------------|
B------------------------------------------|
G------------------------------------------|
D------------------------------------------|
A------------------------------------------|
E------------------------------------------|

no other instruments. fade in with repeated riff
E-----------------------------------------------------|
B-----------------------------------------------------|
G-------7p5p0-----7p5p0-----7p5p0---------------------|
D--7p5p0-----7p5p0-----7p5p0--------------------------|
A-----------------------------------------------------|
E-----------------------------------------------------|

faded riff cont. all repeated
E-------------------------------------------|
B-------------------------------------------|
G------9p7p0--------------------------------|
D-9p7p0-------------------------------------|
A-------------------------------------------|
E-------------------------------------------|

heavy riff #1. repeated x4
E--------------------------------------------|
B--------------------------------------------|
G--------------------------------------------|
D--------------3---2~~~~---------------------|
A--2---3---5---1---0-------------------------|
E--0---1---3---------------------------------|

palm muting throughout. x8
E-------------------------------------------------------|
B-------------------------------------------------------|
G-------------------------------------------------------|
D-------------------------------------------------------|
A--------------7-9~~~~~--------5P.H~~~~~~---------------|
E--0-000-0-000----------0-0-000-------------------------|

solo #2
E-17p14------14h17p14------14h17p14------14h17p14-------------------|
B------16--16--------16--16--------16--16---------------------------|
G--------15------------15------------15-----------------------------|
D-------------------------------------------------------------------|
A-------------------------------------------------------------------|
E-------------------------------------------------------------------|

solo #2 cont.
E-------14h17--19p16------16h19p16------16h19p16-19^~~ 19p17 19^~~~----------------|
B-16--16------------18--18--------18--18-------------------------------------------|
G---15----------------17------------17---------------------------------------------|
D----------------------------------------------------------------------------------|
A----------------------------------------------------------------------------------|
E----------------------------------------------------------------------------------|

solo #2 cont.
E-211917------------------------------------------------------|
B-------191715171514------------------------------------------|
G-------------------151413------131211--1514-15^~~~~----------|
D-------------------------131211------------------------------|
A-------------------------------------------------------------|
E-------------------------------------------------------------|

solo #3 (wah)
E--------------------------------------------------------------------------|
B--------------------------------------------------------------------------|
G------------11p10p9/(12)-14^ 12-14^ 12-14^ 12-14^~~~----------------------|
D-11^~~ 11^~~--------------------------------------------------------------|
A--------------------------------------------------------------------------|
E--------------------------------------------------------------------------|

solo #4
E-------------------15161718^~~~~~-------------------|
B-------------151617---------------------------------|
G-------151617---------------------------------------|
D-151617---------------------------------------------|
A----------------------------------------------------|
E----------------------------------------------------|

Riffage x4
E----------------------------------------------------|
B----------------------------------------------------|
G---------------------------55577799999--------------|
D----------------------------------------------------|
A---2--5--4--2P.H~~---2--5---------------------------|
E-33-33-33-33-------33-33-33-------------------------|
fill
E-14--14--13--13--14--13--17--15-----------------------|
B---12--12--12--12--12--12--12--12---------------------|
G------------------------------------------------------|
D------------------------------------------------------|
A------------------------------------------------------|
E------------------------------------------------------|
fill cont. (with human capo in certain part.) all fill x2
E-14--14--13--13--15--17--19--15--17--19-------------------|
B---12--12--12--12--12--12--12--12--12--12-----------------|
G----------------------------------------------------------|
D----------------------------------------------------------|
A----------------------------------------------------------|
E----------------------------------------------------------|
riffage #2. (they are elevens!) x2
E-----------------------------------------------------------------------------------|
B-----------------------------------------------------------------------------------|
G-555-------------777-------------666-----------------------------------------------|
D-xxx---5--5-5-5--xxx---7--7-7-7--xxx---6--6-6-6------------------------------------|
A-333---3--3-3-3--555---5--5-5-5--444---4--4-4-4------------------------------------|
E----000-00-0-0------000-00-0-0------000-00-0-0--777799991212121211111111-----------|
Heavy Riffage. x4
E----------------------------------------------|
B----------------------------------------------|
G-------------3335555--------------------------|
D---------3--2---------------------------------|
A---3--4---------------------------------------|
E-11-11-11-11----------------------------------|
ending #1. hold opens for 4 bars to fade out.
E----------------------------------------|
B----------------------------------------|
G----------------------------------------|
D-0~-------------------------------------|
A-0~-------------------------------------|
E-0~-------------------------------------|
clean part. x4
E------------------------------0--------------------|
B-------------------------------0-------------------|
G--------------------------------0------------------|
D-----------------------------0---0-----------------|
A-----7575-----9797----5353--5----------------------|
E-/(5)-----/(7)----/(3)-----3-----------------------|

clean intersection. x4
E-3----5----9----5------------------------------|
B--2----6----8----6-----------------------------|
G---1~---7~---7~---7~~--------------------------|
D-----------------------------------------------|
A-----------------------------------------------|
E-----------------------------------------------|
HEAVY. fade in repeated riff. x4
E---------------------------------------------------------------------------------------|
B---------------------------------------------------------------------------------------|
G---------------------------------------------------------------------------------------|
D---------------------------------------------------------------------------------------|
A---------------------------------------------------------------------------------------|
E-0h12h140h12h140h12h140h12h140h12h140h12h140h12h14-------------------------------------|
HEAVY. cont.
E---------------------------------------------|
B---------------------------------------------|
G---------------------------------------------|
D---------------------------------------------|
A-0h12h14-------------------------------------|
E---------------------------------------------|
Solo #5                 t
E-----------------16h19-21p-19p16-------------------|
B---------------18---------------18-----------------|
G----------16h19-------------------19p16------------|
D--------14-----------------------------14----------|
A------14-------------------------------------------|
E-12h15---------------------------------------------|

Solo #5 cont.
E-------------------------------------------|
B-------------------------------------------|
G-------------------------------------------|
D-------------------------------------------|
A-14----------------------------------------|
E---15p12-----------------------------------|
Solo #5 cont.
E---------------------------121315-----------|
B---------------------121315-----------------|
G-------------------14-----------------------|
D-------------121415-------------------------|
A-------121415-------------------------------|
E-121315-------------------------------------|
Solo #5 cont.
E-15p13p12-15p13p12-15p13p12-15p13p12----------------------------------|
B------------------------------------13~~~-----------------------------|
G----------------------------------------------------------------------|
D----------------------------------------------------------------------|
A----------------------------------------------------------------------|
E----------------------------------------------------------------------|
Solo #5 cont.
E-------151617------171819------181920------192021-21^~~~------------|
B-151617------171819------181920------192021-------------------------|
G--------------------------------------------------------------------|
D--------------------------------------------------------------------|
A--------------------------------------------------------------------|
E--------------------------------------------------------------------|
Solo #5 cont.
E-211917------------------------------------------|
B-------211917------------------------------------|
G-------------191716------------------------------|
D-------------------191716------------------------|
A-------------------------171514------------------|
E-------------------------------171514-14~~~------|
Solo #5 cont.
E------------------------------------15h17-17^~~-|
B-------------------------------15h17------------|
G----------------15h17-----15h17-----------------|
D-----------15h17-----15h17----------------------|
A------15h17-------------------------------------|
E-15h17------------------------------------------|
Solo #5 cont.
E-----17h19p17---------15h17p15------------------------|
B---18--------18-----16--------16----------------------|
G-19------------19-17------------17--------------------|
D------------------------------------------------------|
A------------------------------------------------------|
E------------------------------------------------------|
Solo #5 cont.
E-------------------121314^~~-------------------|
B-------------121314----------------------------|
G-------121314----------------------------------|
D-121314----------------------------------------|
A-----------------------------------------------|
E-----------------------------------------------|

Solo #5 cont.
E-141312141312161514161514181716181716201918201918-22^-22^ 22^~~~~--|
B-------------------------------------------------------------------|
G-------------------------------------------------------------------|
D-------------------------------------------------------------------|
A-------------------------------------------------------------------|
E-------------------------------------------------------------------|

HEAVY. fade in repeated riff. x16 outro.
E---------------------------------------------------------------------------------------|
B---------------------------------------------------------------------------------------|
G---------------------------------------------------------------------------------------|
D---------------------------------------------------------------------------------------|
A---------------------------------------------------------------------------------------|
E-0h12h140h12h140h12h140h12h140h12h140h12h140h12h14-------------------------------------|
HEAVY. cont.
E---------------------------------------------|
B---------------------------------------------|
G---------------------------------------------|
D---------------------------------------------|
A-0h12h14-------------------------------------|
Add in on eighth time. 2nd guitar. to end.
E--------------------------------------------------------|
E--------------------------------------------------------|
B--------------------------------------------------------|
G-99999999999999-1111------------------------------------|
D-xxxxxxxxxxxxxx-x-x-------------------------------------|
A-77777777777777-9-9-------------------------------------|
E--------------------------------------------------------|
Add in on twelfth time. 3rd guitar. to clean outro fade out.
E-1414141414141414141414141414-1515~~~------------------------------------|
B-xxxxxxxxxxxxxxxxxxxxxxxxxxxx--x-x---------------------------------------|
G-1212121212121212121212121212-1313~~~------------------------------------|
D-------------------------------------------------------------------------|
A-------------------------------------------------------------------------|
E-------------------------------------------------------------------------|
Clean outro. x8
e|----------------------------------------------------------|
B|----------------------------------------------------------|
G|-----9-----9--------15--------8---------------------------|
D|---7-----7-------13--------10-----------------------------|
A|-5-----5------11--------12--------------------------------|
E|----------------------------------------------------------|
end clean.
e|-0~~---------------------------------------------------|
B|-2~~---------------------------------------------------|
G|-2~~---------------------------------------------------|
D|-2~~---------------------------------------------------|
A|-0~~---------------------------------------------------|
E|-------------------------------------------------------|
Heavy end.
E||-------------------------|
 B||------------------------|
 G||------------------------|
 D||------------------------|
 A||-3210x------------------|
 E||-3210x------------------|
Tap to rate this tab
# A B C D E F G H I J K L M N O P Q R S T U V W X Y Z