Song name
# A B C D E F G H I J K L M N O P Q R S T U V W X Y Z

Misc Unsigned Bands - Malaysian United Artistes - Here In My Home tab

-------------------------------------------------------------------------------
			     Here In My Home - Malaysian United Artistes (afdlin shauki
 . awie . ning baizura
atilia . jaclyn victor . reshmonu . pete teo . jason lo . klg sqwad . altimet . suki .
lee . nikki palikat . melina william)
-------------------------------------------------------------------------------
Tabbed by: Zahirah Ardy
Email: broississy@yahoo.com
Official Website of artistes: http://www.malaysianartistesforunity.info/?page_id=16

Tuning: Standard


Intro:

Guitar 1 -

Dm F
C Em7b5 B7
Bb C


-----------------------------------------------------------

Verse 1:
Guitar 1 - Strums several times for each chord
Guitar 2 - Strums once for each chord
Bass - N/A for this part


Dm F
C Em7b5 B7
Bb C


Hold on brother hold on
The road is long, we're on stony ground
But I'm strong, you ain't heavy


------------------------------------------------------------

Verse 2:
Guitar 1 - Strums several times for each chord
Guitar 2 - Strums once for each chors

Dm F
C Em7b5 B7
Bb C


Bass -


G|------------------------------|
D|------------------------------|
A|-5~-----3~------0~---1~--3~---|
E|----1~------3~----------------|


Oh, there's a misspoken truth that lies
Colours don't bind, oh no
What do they know? They speak falsely


------------------------------------------------------------


Chorus:

Guitar 1 - Strums several times for each chord

F C Gm
Bb F
C Gm Bb F
C Gm
Bb F
C Gm Bb

adlib: Dm F C C
       Dm F C C

C Gm Bm7

Guitar 2 -

Near the end of the chorus, there's a short guitar solo

e|-5/10-10~----10^/5--------------------|
B|--------------------------------------|
G|--------------------------------------|
D|--------------------------------------|
A|--------------------------------------|
E|--------------------------------------|

Bass -

G|---------------------|---------------------------------------|
D|---------------------|---------------------------------------|
A|-----3~---1~----0-1--|-----3~--1~---0-1----------------------|
E|-1~------------------|-1~------------------------------------|

G|---------------------|---------------------------------------|
D|---------------------|---------------------------------------|
A|-----3~-------1~-----|-5~------------------------------------|
E|-1~-------3~---------|------1~---1/8-8~---8h10p10--5/1-1/8 8-|

G|--------------------------------------|
D|--------------------------------------|
A|-----------5--------------------------|
E|-3h5p3--1-----------------------------|

Here in my home
I'll tell you what it's all about
There's just one hope here in my heart
One love undivided
That's what it's all about
Please won't you fall in one by one by one with me?
(Fall in~ Fall in~)
Fall in with me
(hmm... fall in~)
Fall in fall in fall in with me


------------------------------------------------------------

Verse 3:


Guitar 1 -

Dm (mute)
C Em7b5 B7
Bb C


Guitar 2 -

Strums once for each chord


Bass - here onward, please figure out on your own. too lazy and too bothering to find
:P


Push back sister won't you push back?
Love won't wait, just keep pushing on
Yeah I'm strong, you ain't heavy

------------------------------------------------------------


Verse 4:


Guitar 1 -

Dm F
C Em7b5 B7
Bb C


Guitar 2 -

Strums once for each chord
At 'Don't you know it's now or never' part, play this instead

e|--------------------------------------|
B|--------------------------------------|
G|--------------------------------------|
D|-0-2-3-0---3-2h3-2h5-3----------------|
A|---------3----------------------------|
E|--------------------------------------|

Oh don't you worry about that...
What we have shadows can't deny
Don't you know it's now or never?

------------------------------------------------------------

Chorus:

Guitar 1 -

F C Gm
Bb F
C Gm Bb F
C Gm
Bb F
C Gm Bb


Guitar 2 -


Play this repeatedly through out the chorus
e|-----1-0-0-1-----------------------|
B|-1-1------------3--------3---------|
G|--------------------5--------5-----|
D|----------------------3--------3---|
A|-----------------------------------|
E|-----------------------------------|


Here in my home
I'll tell you what it's all about
There's just one hope, here in my heart
One love undivided
That's what it's all about
Please won't you fall in one by one?


------------------------------------------------------------

Bridge:

Guitar 1 - strums once for each chord, through out the Bridge part

Dm C Gm B


Guitar 2 -
Play this at scatting part

e|-6p5-1/5~--|-5~/3--|-----|-------|
B|-----------|-------|-5/6-|--3~---|
G|-----------|-------|-----|-------|
D|-----------|-------|-----|-------|
A|-----------|-------|-----|-------|
E|-----------|-------|-----|-------|

As Malay rapping starts, Guitar 2 plays this instead, continuously with mutes

e|---------8-----------8-------|
B|-6---6-------6---6-----------|
G|---7---7---7---7---7---------|
D|-----------------------------|
A|-----------------------------|
E|-----------------------------|

(Malay)
Bertubi asakan berkurun lamanya
Hati ke depan mencari yang sayang
[Years of fears and years of tribulation
The heart keeps searching for that endless devotion]

(chinese)
KuK'wp h*e1 "p
Shou qian shou da jia yi qi zou, wo men dai biao guo ren kai kou wei lai jiu mei you diu zou
-[meaning: Hand in hand we'll march like blood brothers
I speak for my people, hope we'll find peace forever]
Tap to rate this tab
 
# A B C D E F G H I J K L M N O P Q R S T U V W X Y Z