Song name
# A B C D E F G H I J K L M N O P Q R S T U V W X Y Z

Misc Unsigned Bands - Celtic Cross - Louden tab

"Louden" Celtic Cross, guitar tab by vzerli1 @ youtube

intro
e----------------------------------------------------------|
B--------0--------0--3-------------------------------------|
G----0-2------0-2-------0-2-4-2-0--------------0-----------|
D----2-2-2----2-2-2-----2-2-2-2-2-2---2p0--0h2---2---------|
A----------------------------------------------------------|
E---------------------------------------------------0------|

e----------------------------------------------------------|
B------0--0--------0-3-2-0-------0-------------------------|
G----2-0---0----0h2-------2-0-0h2-2------0---0-------------|
D----2------2--2------------------------0--0--0------------|
A----------------------------------------------------------|
E-------------0----------------------0-3-------------------|

e----------------------------------------------------------|
B--------0--------------3-2h3p2p0-0------------------------|
G-----0-------4-0-2-4---------------2-0---2-0--------------|
D----2-2--------------------------------4------4-----------|
A---0------------------------------------------------------|
E-----------0---------------------------------0------------|

part 1 x2
e----------------------------------------------------------|
B------0-0---------0-----------------0---------------------|
G---------0------0--0-----0-0------0--0--------------------|
D-----2---------7-7------5-5------7-7----------------------|
A----2-------0-5------0-3------0-5-------------------------|
E---0------------------------------------------------------|

e----------------------------------------------------------|
B-----0-0---------0----------------------------------------|
G--------0------0--0------0-0---0---0----------------------|
D----2---------7-7-------5-5---5---5-----------------------|
A---2-------0-5-------0-3-----3---3---3--------------------|
E--0-------------------------------------------------------|

part 2
e----------------------------------------------------------|
B-----------------------0-----------------0----------0-----|
G----0--0--0--0------0---0----0--------0---0------0--------|
D-----2--2--2-------4-4---4----2------4-4---4----2---------|
A---2--2--2--2---0-5---5-----2--2--0-5---5------2----------|
E--0------------------------0------------------0-----------|

e----------------------------------------------------------|
B--------0-------------------------------------------------|
G------0--0-----0--------0---------------0----0---0--------|
D-----4-4--4-----2------4-4--2-2h4-2-------2---2---2-------|
A--0-5---------2--2--0-5----------------2----2---2---2-----|
E-------------0------------------------0-------------------|

chorus x2
e-------0-------5------0-----------------------------------|
B------1-1-----3-3-------0-----0---------------------------|
G-----0---0---4---4-------0---0----------------------------|
D------------0---------------2-----------------------------|
A---3----------------2------2------------------------------|
E-------------------0--------------------------------------|

part 3
e----------------------------------------------------------|
B---------0------------------------0-----0-----------------|
G------0---0----0---------0--------------------------------|
D-----4-4---4----2-------4-4-2-2h4------2------------------|
A--0-5---5-----2--2---0-5---5----------2-------------------|
E-------------0-----------------------0--------------------|

e----------------------------------------------------------|
B----------------0-----------------------------------------|
G-------0------------0--------0-------------0---0--0-------|
D------4-4--2-2h4-----2------4-4-2-2h4-2------2--2--2------|
A---0-5---5---------2--2--0-5--------------2---2--2--2-----|
E------------------0----------------------0----------------|

e----------------------------------------------------------|
B---------------0-----------------------0-----0------------|
G------0-------------0---------0---------------------------|
D-----4-4--2-2h4------2-------4-4--2-2h4----2--------------|
A--0-5---5----------2--2---0-5---5---------2---------------|
E------------------0----------------------0----------------|

e----------------------------------------------------------|
B----------------------------------------------------------|
G-------0--------------0---0---0---------------------------|
D------4-4--2-2h4-2-----2---2---2--------------------------|
A---0-5---5-----------2--2---2---2-------------------------|
E--------------------0-------------------------------------|

final chorus and outro
e--------0--------5-------0-----------------0--------------|
B-------1-1------3-3-------0-----0---------1-1-------------|
G------0---0----4---4-------0---0---------0---0------------|
D--------------0---------------2---------------------------|
A----3------------------2-----2-------2-3------------------|
E----------------------0-----------------------------------|

e-------5-------0---------0--2-3-5-3-2h3p2p0--------0------|
B------3-3-------0-------0-------------------------1-1-----|
G-----4---4-------0-----0-------------------------0---0----|
D----0-----------------2-----------------------------------|
A-------------2-------2-------------------------3----------|
E------------0-------0-------------------------------------|

e-------5-------0----------------------0-------------------|
B------3-3-------0--------------------0-0------------------|
G-----4---4-------0------0-----0-----0---0-----------------|
D---0--------------2----2-2---2-2---2-----0----------------|
A-------------2--------2---2-2---2-2-------0---------------|
E------------0--------0-----0-----0----------0-------------|
Tap to rate this tab
# A B C D E F G H I J K L M N O P Q R S T U V W X Y Z