Song name
# A B C D E F G H I J K L M N O P Q R S T U V W X Y Z

Misc Unsigned Bands - Akino - Sousei No Aquarion tab

From the Anime Sousei no Aquarion (OP 1)
By AKINO
tabbed by: perpetiel
Nov 13, 2009

this is only the chorus part of the song.

e-----8-8-8-10-8-6-8------------13-12-8-10----------------------|
b-6-6------------------10-8-6-----------------------------------|
g---------------------------------------------------------------|
d---------------------------------------------------------------|
b---------------------------------------------------------------|
e---------------------------------------------------------------|


e-6-6-6-6--6-8-10-8----------------6----6----6----8-------------|
b--------------------10-8-6---8-10---10---10---10---10-8--------|
g---------------------------------------------------------------|
d---------------------------------------------------------------|
b---------------------------------------------------------------|
e---------------------------------------------------------------|


e-----8-8-8-10-8-6-8------------13-12-8-10----------------------|
b-6-6------------------10-8-6-----------------------------------|
g---------------------------------------------------------------|
d---------------------------------------------------------------|
b---------------------------------------------------------------|
e---------------------------------------------------------------|


e-6-6-6-6--6-8-10-8----------------6----6----6----8-------------|
b--------------------10-8-6---8-10---10---10---10---10-8--------|
g---------------------------------------------------------------|
d---------------------------------------------------------------|
b---------------------------------------------------------------|
e---------------------------------------------------------------|


e-----8-8-8-10-8-6-8------------13-12-8-10----------------------|
b-6-6------------------10-8-6-----------------------------------|
g---------------------------------------------------------------|
d---------------------------------------------------------------|
b---------------------------------------------------------------|
e---------------------------------------------------------------|

e-6-6-6-6--6-8-10-8-------------------------------6-8------------|
b--------------------10-8-6--8-10-6--8-10-6--8-10-----10-8-6-8-6-|
g----------------------------------------------------------------|
d----------------------------------------------------------------|
b----------------------------------------------------------------|
e----------------------------------------------------------------|
Tap to rate this tab
# A B C D E F G H I J K L M N O P Q R S T U V W X Y Z