Song name
# A B C D E F G H I J K L M N O P Q R S T U V W X Y Z

Misc Unsigned Bands - Sky Tells All - Love Story tab

Tabbed by Francis 
SHC Lucena HED
09283150081
f_sario@yahoo.com(fs,fb,ym,ms.etc)

Sky tells All -love story

Intro-D A Bm G 2x(power Chord and palm muted)
|---------------------------------------------------------------------|
|-----8---10---7p5------8---10---5h7---------5---5---7p5----5---7p5-3~|
|-------------------------------------(3x)----------------------------|
|-0-0---0----0------0-0---0----0-----------0---0---0------0---0-------|
|---------------------------------------------------------------------|
|---------------------------------------------------------------------|
  * *   *   *       * *   *    *           *   *   *      *   *
Verse--D G Bm G 2x(power Chord and palm muted)
|-------------|---------------|--10-------|--5------|-----------------|
|---7----5/3--|----10---10----|-----10~---|---------|-----------------|
|-------------|------------7~-|-----------|----6~---|-----6-----------|
|-0----0------|--0----0-------|-----------|---------|---7---7~--------|
|-------------|---------------|-----------|---------|-----------------|
|-------------|---------------|-----------|---------|-----------------|
  *    *         *    *            
Refrain--G A Bm D  G  A  Bm   G A  (power Chord)
|-------------------------------------|-------------------------------|
|-------------------------------------|-------------------------------|
|----7---6---7--------7---9---6h7-----|-9/11-11~-----9~---------------|
|-00---0---0---7---00---0---0-----(3x)|-------------------------------|
|-------------------------------------|-------------------------------|
|-------------------------------------|-------------------------------|
  ** * * * * * *   ** * * * *         

 Chorus- D A Bm G  D(power Chord)                
|-----------------------------------|-------------------------|--------|
|--8------10------7-----8-7---------|-------------------------|--------|
|-------7-------7-----7-----9-7-(3x)|--9----7---9----11-------|-7~-----|
|-----------------------------------|-------------------------|--------|
|-----------------------------------|-------------------------|--------|
|-----------------------------------|-------------------------|--------|


Verse - D G Bm G 2x(power Chord and palm muted w/ some pausing
)
Do refrain and 
Do chorus 2x

Solo- D A Bm G A 

|-----------------------------------------|
|-(3)/7h10-7~--------(3)/7h10-7~----------|
|-------------9--7~--------------9--11~---|
|-----------------------------------------|
|-----------------------------------------|
|-----------------------------------------|

|---------------------------------------------------------------------|
|---------------------------------------------------------------------|
|--77--/14~---77--/16~----77--/18-19--21^(23)(21)~--------------------|
|---------------------------------------------------------------------|
|--55--/12~---55--/14~----55--/16-17--19^(21)(19)~--------------------|
|---------------------------------------------------------------------|


Refrain - Bm G D A (power Chord) 

Do Chorus
Last Chorus- E B C#m A B 2x E (power Chord) 

End E (power Chord) 
Tap to rate this tab
# A B C D E F G H I J K L M N O P Q R S T U V W X Y Z