Song name
# A B C D E F G H I J K L M N O P Q R S T U V W X Y Z

Misc Unsigned Bands - The Blacksheeps - Edwin tab

Band: The Blacksheeps
Song: Edwin
Album: The Blacksheeps

This is the first song i've tabbed down, but i think this is how it goes.

b: Bend
h: hammer on
p: pull off


Intro:
e|-------------------------------------------|
b|-------------------------------------------|
g|------------7-7-77----5-5-5----------------|
d|---5-5-5----7-7-77----5-5-5----5-5-55------|
a|---5-5-5----5-5-55----3-3-3----5-5-55------|
E|---3-3-3-----------------------3-3-33------|


e|-------------------------------------------|
b|-------------------------------------------|
g|------------7-7-77----9-9-9----5-5-55------|
d|---5-5-5----7-7-77----9-9-9----5-5-55------|
a|---5-5-5----5-5-55----7-7-7----3-3-33------|
E|---3-3-3-----------------------------------|

Riff:
e|-------------------------------------------|
b|-------------------------------------------|
g|-----------------7-------------------------|
d|-7b5--------7b5------7b5------------55-7-5-|
a|------7-5-----------------7-5---5-7--------|
E|-------------------------------------------|

Verse: (Palm mute)
e|-------------------------------------------|
b|-------------------------------------------|
g|------------7-7-77----5-5-5----------------|
d|---5-5-5----7-7-77----5-5-5----5-5-55------|
a|---5-5-5----5-5-55----3-3-3----5-5-55------|
E|---3-3-3-----------------------3-3-33------|


e|-------------------------------------------|
b|-------------------------------------------|
g|------------7-7-77----9-9-9----5-5-55------|
d|---5-5-5----7-7-77----9-9-9----5-5-55------|
a|---5-5-5----5-5-55----7-7-7----3-3-33------|
E|---3-3-3-----------------------------------|     x2

Chorus:
e|-------------------------------------------|
b|-------------------------------------------|
g|------------7-7-77----5-5-5----------------|
d|---5-5-5----7-7-77----5-5-5----5-5-55------|
a|---5-5-5----5-5-55----3-3-3----5-5-55------|
E|---3-3-3-----------------------3-3-33------|


e|-------------------------------------------|
b|-------------------------------------------|
g|------------7-7-77----9-9-9----5-5-55------|
d|---5-5-5----7-7-77----9-9-9----5-5-55------|
a|---5-5-5----5-5-55----7-7-7----3-3-33------|
E|---3-3-3-----------------------------------|

Solo:
e|--------------------------------------------------------|
b|--------------------------------------------------------|
g|-----------------7--------------------------------------|
d|-7b5--------7b5------7b5--7b5-----55-7-5--7b5h7p5-------|
a|------7-5----------------------7------------------------|
E|--------------------------------------------------------|


Don't have the rest yet
Tap to rate this tab
# A B C D E F G H I J K L M N O P Q R S T U V W X Y Z