Song name
# A B C D E F G H I J K L M N O P Q R S T U V W X Y Z

Misc Unsigned Bands - Fuel For Florence - The Third Reich Has Fallen tab

-------------------------------------------------------------------------------
			     The Third Reich Has Fallen - Fuel For Florence
-------------------------------------------------------------------------------

The Third Reich Has Fallen

Intro
Guitar 1 (x10)
e|--0----0h7--8------0----0h7---8---10--------------------------------------|
B|--0----0h8-10------0----0h8--10---12--------------------------------------|
G|--------------------------------------------------------------------------|
D|--------------------------------------------------------------------------|
A|--------------------------------------------------------------------------|
E|--------------------------------------------------------------------------|
Guitar 2 (comes in after 2 times on upbeat - played straight through) (x2)
e|--------------------------------------------------------------------------------------------------|
B|--------------------------------------------------------------------------------------------------|
G|--------------------------------------------------------------------------------------------------|
D|-[17-16-14-16]------------------------------17-16-14-16-------------------------------17-16-14-16-|
A|---------------15----------------------------------------14---------------------------------------|
E|----------------0-0-15-0-17-0-0-14---0-0-0-0-0--0--0--0---0-0-15-0-17-0-0-14---0-0-0-0-0--0--0--0-|

e|--------------------------------------------12+----------------12+----------|
B|-------------------------------------------------12+----------------12+-----|
G|-----------------------------------------------------------------------11---|
D|----------------------------------------------------------------------------|
A|---12------------------------------------10----------10-----9-------------9-|
E|----0-0-15-0-17-0-0-14-0-0-0-0-0-0-0-0----0-0-0-0-0-0-0-0---0-0-0-0-0-0-0-0-|


Verse
Guitar 1 (Part remains throughout verse) (x8)
e|--0----0h7--8------0----0h7---8---10--------------------------------------|
B|--0----0h8-10------0----0h8--10---12--------------------------------------|
G|--------------------------------------------------------------------------|
D|--------------------------------------------------------------------------|
A|--------------------------------------------------------------------------|
E|--------------------------------------------------------------------------|
Guitar 2 (x4)
e|------0-------------0-------------0----------0------0---------------------|
B|------0-------------0-------------0----------0------0---------------------|
G|-12------12----11------11-----9-------9----7---7--------------------------|
D|-14------14----11------11----10------10----9---9--7----7------------------|
A|-14------14----12------12----10------10----9---9--9----9------------------|
E|-------------------------------------------------10---10------------------|
(x4)
e|---------12+--------------12+---------------12+-----------0------0--------|
B|--------------12+----------------------------------12+----0------0--------|
G|-12-12-12---12---11-11-11---11-11---9--9--9-----9-------7---7-------------|
D|-14-14-14---14---12-12-12---12-12--10-10-10----10-------9---9--7----7-----|
A|-14-14-14---14---12-12-12---12-12--10-10-10----10-------9---9--9----9-----|
E|--0--0--0----0----0--0--0----0--0---0--0--0-----0-------------10---10-----|

Bridge
Guitar 2
e|--------------------------------------------------------------------------|
B|--------------------------------------------------------------------------|
G|--9-9-9-9-9-9--12-12-12-12-12-12--11-11-11-11-11-11--14-14-14-14-14-14----|
D|--9-9-9-9-9-9--12-12-12-12-12-12--11-11-11-11-11-11--14-14-14-14-14-14----|
A|--7-7-7-7-7-7--10-10-10-10-10-10---9--9--9--9--9--9--12-12-12-12-12-12----|
E|--0-0-0-0-0-0---0--0--0--0--0--0---0--0--0--0--0--0---0--0--0--0--0--0----|

e|--------------------------------------------------------------------------|
B|--------------------------------------------------------------------------|
G|--9-9-9-9-9-9--12-12-12-12-12-12--11-11-11-11-11-11--14-------17---17-----|
D|--9-9-9-9-9-9--12-12-12-12-12-12--11-11-11-11-11-11--14-------17---17-----|
A|--7-7-7-7-7-7--10-10-10-10-10-10---9--9--9--9--9--9--12-------15---15-----|
E|--0-0-0-0-0-0---0--0--0--0--0--0---0--0--0--0--0--0---0--------0----0-----|

Chorus (in 2/4)
Guitar 2 (x2)
e|-------------------------------------------------------------------------------------|
B|-------------------------------------------------------------------------------------|
G|-9-9-9-9-----------------------------------9-9-9-9-----------------------------------|
D|-9-9-9-9--9-9-9-9--10-10-10-10--7-7-7-7----9-9-9-9--9-9-9-9--10-10-10-12--12-12-12-12|
A|-7-7-7-7--9-9-9-9--10-10-10-10--7-7-7-7----7-7-7-7--9-9-9-9--10-10-10-12--12-12-12-12|
E|-0-0-0-0--7-7-7-7---8--8--8--8--5-5-5-5----0-0-0-0--7-7-7-7---8--8--8-10--10-10-10-10|
(x4)
e|--------------------------------------------------------------------------|
B|--------------------------------------------------------------------------|
G|-9-9-9--------------------------------[-4th time only-]-------------------|
D|-9-9-9---9-9-9--10-10-10---7----------[--5----4----2--]-------------------|
A|-7-7-7---9-9-9--10-10-10---7----------[--5----4----2--]-------------------|
E|---------7-7-7---8--8--8---5----------[--3----2----0--]-------------------|

Then Intro, Verse, Chorus

Guitar 2
Bridge (x4)
e|--------------------------------------------------------------------------|
B|------12---12-------------------------------------------------------------|
G|------11---11------11----11--------12----12------9-----9------------------|
D|-------------------11----11--------12----12------9-----9------------------|
A|---9-----9-----9-9-----9-------10-----10-----7-7-----7--------------------|
E|--------------------------------------------------------------------------|

Bass (x2)
G|-------------------------------------------------------------------------|
D|-------------------------------------------------------------------------|
A|-------------------------------------------------------------------------|
E|-7-7-7-7-7-7-7-7--2-2-2-2-2-2-2-2--3-3-3-3-3-3-3-3--0-0-0-0-0-0-0-0------|
G|-------------------------------------------------------------------------|
D|-------------------------------------------------------------------------|
A|-----------------------------------12----10--9---10-----7----------------|
E|-7------------7----10---9------7----------(-x2 played straight through-)-|

Then Chorus.
 
| /  slide up
| \  slide down
| h  hammer-on
| p  pull-off
| ~  vibrato
| +  harmonic
| x  Mute note
===============================================================================
Tap to rate this tab
# A B C D E F G H I J K L M N O P Q R S T U V W X Y Z