Song name
# A B C D E F G H I J K L M N O P Q R S T U V W X Y Z

Misc Unsigned Bands - Carly And Ben - Tik Tok Kesha tab

-------------------------------------------------------------------------------
			     Tik Tok - Carly and Ben
-------------------------------------------------------------------------------
Tabbed by: Ben
Email: maip233@yahoo.com

Tuning: Standard

Verse:

e|--------------------|
B|--------------------|
G|---7----9----10-----|
D|--------------------|
A|---5----7----8------|
E|---6----8----10-----|

Chorus:

e|---1----3----5--------3----5----3|
B|---3----5----6--------3----6----5|
G|---3----5----7---X3---3----7----5|
D|---3----5----7--------5----7----5|
A|---1----3----5--------5----5----3|
E|----------------------3----------|

Bridge:

e|---0----0----0----0----|
B|---6----3----5----5----|
G|---7----3----7----5----|
D|---8----5----7----5----|


Just watch the video to get a feel for the rhythms.  The bridge is just mainly picking 
individual strings.


| /  slide up
| \  slide down
| h  hammer-on
| p  pull-off
| ~  vibrato
| +  harmonic
| x  Mute note
===============================================================================
Tap to rate this tab
# A B C D E F G H I J K L M N O P Q R S T U V W X Y Z