Song name
# A B C D E F G H I J K L M N O P Q R S T U V W X Y Z

Misc Unsigned Bands - The Blacksheeps - Punk Revolution tab

Song: Punk Revolution
Band: The Blacksheeps
Album: The Blacksheeps


Intro/Chorus:
e|--------------------------------------------------|
b|--------------------------------------------------|
g|--9-9-9-9-9-9-9-7-5-5-5-5-7-7-7-7-----------------|
d|--9-9-9-9-9-9-9-7-5-5-5-5-7-7-7-7-----------------|
a|--7-7-7-7-7-7-7-5-3-3-3-3-5-5-5-5-----------------|
E|--------------------------------------------------| x4

Verse:
e|--------------------------------------------------|
b|--------------------------------------------------|
g|--9-9-9-9-9-9-9-9-9-9-9-9-12-12-11-11-------------|
d|--9-9-9-9-9-9-9-9-9-9-9-9-12-12-11-11-------------|
a|--7-7-7-7-7-7-7-7-7-7-7-7-10-10-9--9--------------|
E|--------------------------------------------------| x2

Chorus:
e|--------------------------------------------------|
b|--------------------------------------------------|
g|--9-9-9-9-12-12-12-12-14-14-14-14-12-12-11-11-----|
d|--9-9-9-9-12-12-12-12-14-14-14-14-12-12-11-11-----|
a|--7-7-7-7-10-10-10-10-12-12-12-12-10-10-9--9------|
E|--------------------------------------------------| x2


Tap to rate this tab
# A B C D E F G H I J K L M N O P Q R S T U V W X Y Z