Song name
# A B C D E F G H I J K L M N O P Q R S T U V W X Y Z

Misc Unsigned Bands - As The Dawn Arises - My Death tab

As the Dawn Arises
My Death
Fade to Nothing
INTRO              RIFF 1
e-------------------------------------------------------|
b-------------------------------------------------------|
g-------------------------------------------------------|
d-----2----3----5----3----2----0----2---x---------------|xREPEAT 4X LETTING LAST CHORD
a---0----5----5----5----0----0----0---------------RING--|
E-0----0----0----0----0----0----0-----------------------|
                  RIFF 2
e---------------------------------------------------------------------|
b---------------------------------------------------------------------|
g---------------------------------------------------------------------|
d---2--3--2--5--3--7--5--8--7--5--3--2---!!!rEpEaT 4X!!!--------------|
a---------------------------------------------------------------------|
E-0--0--0--0--0--0--0--0--0--0--0--0----------------------------------|
                  RIFF 3                                 RIFF 4
e---------------------------------------------------------------------------|
b---------------------------------------------------------------------------|
g---------------------------------------------------------------------------|(X2)
d--0--0--0--0--8--0--0--0--0--7--0--0--0--0--5(2x)-- 0--0--0--0--8--7--5--3-|
a--0--0--0--0--8--0--0--0--0--7--0--0--0--0--5------ 0--0--0--0--8--7--5--3-|
E--0--0--0--0--8--0--0--0--0--7--0--0--0--0--5------ 0--0--0--0--8--7--5--3-|

REPEAT RIFF 1
THEN PLAY THIS
e----------------------------------------------------------------------|
b----------------------------------------------------------------------|
g----------------------------------------------------------------------|
d-----2----2----3----3----3----5----5----2----0----2-------------------|
a---0----0----5----5----5----5----5----0----0----0---------------------|
E-0----0----0----0----0----0----0----0----0----0-----------------------|
SOLO #1
e----------------------------------------------------------------------|
b----------------------------------------------------------------------|
g-------------------------------------------5---3---2---0---2---3------|
d--8---7---5---3---5---0h2---3---5---3---2-----------------------------|
a----------------------------------------------------------------------|
E----------------------------------------------------------------------|

e----------------------------------------------------------------------|
b---5---3---6---5---3---5------8---6---5---3---5---6---5---3---2---3---|
g----------------------------------------------------------------------|
d----------------------------------------------------------------------|
a----------------------------------------------------------------------|
E----------------------------------------------------------------------|

e----------------------------------------------------------------------|
b----------------------------------------------------------------------|
g----------------------------------------------------------------------|
d--------------------------------------------3---5---7-----------------|
a--------------------------------------------3---5---7-----------------|
E-00000-8-00000-7-00000-5-00000-3-(PLAY 2X)--3---5---7-----------------|

e----------------------------------------------------------------------|
b----------------------------------------------------------------------|
g----------------------------------------------------------------------|
d-0--0--0--0--8--0--0--0--0--7--0--0--0--0--5--------------------------|
a-0--0--0--0--8--0--0--0--0--7--0--0--0--0--5--------------------------|
E-0--0--0--0--8--0--0--0--0--7--0--0--0--0--5--------------------------|

e----------------------------------------------------------------------|
b----------------------------------------------------------------------|
g----------------------------------------------------------------------|
d-----------------------------0----------------------------------------|
a-----------------------------0----------------------------------------|
E--0000000000/--/--/--/--/----0----------------------------------------|
Tap to rate this tab
 
# A B C D E F G H I J K L M N O P Q R S T U V W X Y Z